Everyday Sunday - Wake Up Wake Up Text Guitar Tab

Learn song with the online tabulature player
mmkay, this is my first tab. please dont hurt me too much if its wrong, but im pretty 
its correct. it's also fun to play. ~ninja.kitty

in standard tuning


Intro

|--------------------------------|
|--------------------------------|
|---6-6--5\6--6-5\6--6--5\6--8---|
|---6-6--5\6--6-5\6--6--5\6--8---|
|---4-4--3\4--4-3\4--4--3\4--6---|
|--------------------------------|

|--------------------------------|
|--------------------------------|
|---6-6--5\6--6--5\6--6--10--8---|
|---6-6--5\6--6--5\6--6--10--8---|
|---4-4--3\4--4--3\4--4---8--6---|
|--------------------------------|


|--------------------------------|
|--------------------------------|
|---6-6--5\6--6-5\6--6--5\6--8---|
|---6-6--5\6--6-5\6--6--5\6--8---|
|---4-4--3\4--4-3\4--4--3\4--6---|
|--------------------------------|

|--------------------------------|
|--------------------------------|
|--111111111111111166666666------| <- those are 11s :]
|--xxxxxxxxxxxxxxxxxxxxxxxx------|
|---9-9-9-9-9-9-9-944444444------|
|--------------------------------|


Verse

(there is mostly bass in the verse, except for a few random parts where the guitar 
in, but i didnt think it was worth tabbing)


Chorus


|--------------------------------|
|--------------------------------|
|---6-6--5\6--6-5\6--6--5\6--8---|
|---6-6--5\6--6-5\6--6--5\6--8---|
|---4-4--3\4--4-3\4--4--3\4--6---|
|--------------------------------|

|--------------------------------|
|--------------------------------|
|---6-6--5\6--6--5\6--6--10--8---|
|---6-6--5\6--6--5\6--6--10--8---|
|---4-4--3\4--4--3\4--4---8--6---|
|--------------------------------|


|--------------------------------|
|--------------------------------|
|---6-6--5\6--6-5\6--6--5\6--8---|
|---6-6--5\6--6-5\6--6--5\6--8---|
|---4-4--3\4--4-3\4--4--3\4--6---|
|--------------------------------|

God I want to wake up wake up
|--------------------------------|
|--------------------------------|
|--111111111111111166666666------|
|--xxxxxxxxxxxxxxxxxxxxxxxx------|
|---9-9-9-9-9-9-9-944444444------|
|--------------------------------|

Wake up!!!!!
|----------------------------------------------|
|----------------------------------------------|
|-----1111111111111111111111111111111166666666-|
|-----xxxxxxxxxxxxxxxxxxxxxxxxxxxxxxxxxxxxxxxx-|
|------9-9-9-9-9-9-9-9-9-9-9-9-9-9-9-944444444-|
|----------------------------------------------|


Verse


Chorus


|--------------------------------|
|--------------------------------|
|---6-6--5\6--6-5\6--6--5\6--8---|
|---6-6--5\6--6-5\6--6--5\6--8---|
|---4-4--3\4--4-3\4--4--3\4--6---|
|--------------------------------|

|--------------------------------|
|--------------------------------|
|---6-6--5\6--6--5\6--6--10--8---|
|---6-6--5\6--6--5\6--6--10--8---|
|---4-4--3\4--4--3\4--4---8--6---|
|--------------------------------|


|--------------------------------|
|--------------------------------|
|---6-6--5\6--6-5\6--6--5\6--8---|
|---6-6--5\6--6-5\6--6--5\6--8---|
|---4-4--3\4--4-3\4--4--3\4--6---|
|--------------------------------|

God I want to wake up wake up
|--------------------------------|
|--------------------------------|
|--111111111111111166666666------|
|--xxxxxxxxxxxxxxxxxxxxxxxx------|
|---9-9-9-9-9-9-9-944444444------|
|--------------------------------|

Wake up!!!!!
|----------|
|----------|
|-66666666-|
|-xxxxxxxx-|
|-44444444-|
|----------|

Bridge

  half as--leep................
  counting sheep...............
|----------------------------------------------|
|----------------------------------------------|
|-44444444111111111111111111111111111166666666-|
|-xxxxxxxxxxxxxxxxxxxxxxxxxxxxxxxxxxxxxxxxxxxx-|
|-22222222-9-9-9-9-9-9-9-9-9-9-9-9-9-944444444-| x2
|----------------------------------------------|

Interlude

cause I... sleep... one... had...
|----------------------------------|
|----------------------------------|
|--6~------4~------6~------4~------|
|--6~------4~------6~------4~------|
|--4~------2~------4~------2~------|
|----------------------------------|


Chorus


|--------------------------------|
|--------------------------------|
|---6-6--5\6--6-5\6--6--5\6--8---|
|---6-6--5\6--6-5\6--6--5\6--8---|
|---4-4--3\4--4-3\4--4--3\4--6---|
|--------------------------------|

|--------------------------------|
|--------------------------------|
|---6-6--5\6--6--5\6--6--10--8---|
|---6-6--5\6--6--5\6--6--10--8---|
|---4-4--3\4--4--3\4--4---8--6---|
|--------------------------------|


|--------------------------------|
|--------------------------------|
|---6-6--5\6--6-5\6--6--5\6--8---|
|---6-6--5\6--6-5\6--6--5\6--8---|
|---4-4--3\4--4-3\4--4--3\4--6---|
|--------------------------------|

God I want to wake up wake up
|--------------------------------|
|--------------------------------|
|--111111111111111166666666------|
|--xxxxxxxxxxxxxxxxxxxxxxxx------|
|---9-9-9-9-9-9-9-944444444------|
|--------------------------------|

Wake up!!!!!
|----------|
|----------|
|-66666666-|
|-xxxxxxxx-|
|-44444444-|
|----------|

Bridge

  half as--leep................
  counting sheep...............
|----------------------------------------------|
|----------------------------------------------|
|-44444444111111111111111111111111111166666666-|
|-xxxxxxxxxxxxxxxxxxxxxxxxxxxxxxxxxxxxxxxxxxxx-|
|-22222222-9-9-9-9-9-9-9-9-9-9-9-9-9-944444444-| x2
|----------------------------------------------|

Wake up!!!!!
|----------|
|----------|
|-66666666-|
|-xxxxxxxx-|
|-44444444-|
|----------| repeat

Bridge

  half as--leep................
  counting sheep...............
|----------------------------------------------|
|----------------------------------------------|
|-44444444111111111111111111111111111166666666-|
|-xxxxxxxxxxxxxxxxxxxxxxxxxxxxxxxxxxxxxxxxxxxx-|
|-22222222-9-9-9-9-9-9-9-9-9-9-9-9-9-944444444-| x2
|----------------------------------------------|

Ending

|----------------------------------|
|----------------------------------|
|--6~--------------6~--------------|
|--6~------6~------6~--------------|
|--4~------6~------4~--------------|
|----------4~------4~--------------|