Everything But The Girl - Missing Text Guitar Tab

Learn song with the online tabulature player
tabbed by Yigit from turkey

(0:00)
Verse
G--------------------------------------|
D--------------------------------------|
A--------------------------------------|
E---5-5-0-3-5-3---5-5-0-3-0-3-0--------|
(0:30)

(0:30)
Chorus
G---------------------------------------------------------------------|
D---------------------------------------------------------------------|
A---------------------------------------------------------------------|
E---5-5-0-3-0-3-0---1-1-0-1-0-1-0----3-3-0-3-0-3-1---0-0-1-0-3-5------|

(0:46)
Verse
G--------------------------------------|
D--------------------------------------|
A--------------------------------------|
E---5-5-0-3-5-3---5-5-0-3-0-3-0--------|
(1:17)

(1:17)
Chorus
G---------------------------------------------------------------------|
D---------------------------------------------------------------------|
A---------------------------------------------------------------------|
E---5-5-0-3-0-3-0---1-1-0-1-0-1-0----3-3-0-3-0-3-1---0-0-1-0-3-5------|
 (1:32)

(1:32)
Verse
G--------------------------------------|
D--------------------------------------|
A--------------------------------------|
E---5-5-0-3-5-3---5-5-0-3-0-3-0--------|
 (2:04)

(2:04)
SILENT
(2:58)

(2:58)
Verse
G--------------------------------------|
D--------------------------------------|
A--------------------------------------|
E---5-5-0-3-5-3---5-5-0-3-0-3-0--------|
 (3:07)

(3:07) end with…Chorus
G---------------------------------------------------------------------|
D---------------------------------------------------------------------|
A---------------------------------------------------------------------|
E---5-5-0-3-0-3-0---1-1-0-1-0-1-0----3-3-0-3-0-3-1---0-0-1-0-3-5------|


i beg you please report my mistakes back, this is my first tab...
yigit.cev@gmail.com