Everything - Hooch Text Guitar Tab

Learn the song with the online tablature player
I heard this in the the Nicholas Cage
movie where he is an arms dealer.
Song: Hooch
Artist: Everything

Ok, there are allready Hooch tabs
around but none of them are right.
After hearing the song in the movie
I figured I'd take the east way out
and look for a tab for it but no,
none of the tabs were correct.
(especialy user eastbay36, he was the
one with the tab so bad that it inspired
me to make this one.)
So I took the three minutes and figured
it out and because noone else had the
proper tabs for it I figured it wouldn't
hurt to upload them.

Your welcome.
h = hammer on
p = pull off
/ = slide up
\ = slide down
{ = played at the same time

intro
riff 1

e---------------------------------|
b---------------------------------|
g---7-----7--7/8------------------|  x2
d---9-----9--9------9-------------|
a---------------------------------|
e---------------------------------|

riff 2
e--------7--p0--------------7--p0-|
b------0----------------0---------|
g--7/8------------7/8-------------|  x2
d---------------------------------|
a---------------------------------|
e---------------------------------|

verse
(Repeat until Chorus)
e-----4-------------------4------------|
b-4---0----5---7------4---0---5---7/6\7|
g-4--------4---7------4-------4---7/6\7|
d--------------------------------------|
a--------------------------------------|
e--------------------------------------|

Chorus
also has riff 2 played along with it)

{ (guitar 1)
{ e----------7--p0--------------7--p0-|
{ b-------0----------------0----------|
{ g--7/8------------7/8---------------|
{ d-----------------------------------|
{ a-----------------------------------|
{ e-----------------------------------|
{
{ (guitar 2)
{ e----------9-9-9-7----------9-9-9-7-|
{ b----------9-9-9-7----------9-9-9-7-|
{ g-----------------------------------|
{ d-----------------------------------|
{ a-----------------------------------|
{ e-----------------------------------|
{
{ (guitar 3)
{ e-----4----------------------4---------|
{ b-4---0----5---7------4---0---5---7/6\7|
{ g-4--------4---7------4-------4---7/6\7|
{ d--------------------------------------|
{ a--------------------------------------|
{ e--------------------------------------|

Chorus ending
e-------------------------|
b----------------------0--|
g--7--7--7--7----7/8------|
d--7--7--7--7----9--------|
a-------------------------|
e-------------------------|

"Lets get real lets get..."
e------------------------------------------|
b--4--5--7--9--12-------------------------0|
g----------------------7--7--7--7----7/8---|
d----------------------7--7--7--7----9-----|
a------------------------------------------|
e------------------------------------------|