Expendables - Fight The Feeling Text Guitar Tab

Learn the song with the online tablature player
                             "Fight the Feeling" by The Expendables

Intro
2x
                     3x   1x
G|----------------------|---------------|
D|----------------------|---------------|
A|----10----------------|--10-----------|
E|-------10-10-10--8--6-|---------------|

Verse
2x

G|----------------------------------------|
D|----------------------------------------|
A|-6666666--55-3--------------------------|
E|---------------33--8888-10-8-6-33--66-8-|

G|-----------------------------------------|
D|-----------------------------------------|
A|-6666666--55-3---------------------------|
E|---------------33--8888-10-8-6-33--88-10-|

Pre-Chorus
                                           3x  "You will see"
G|---------------------------------------------|-----|
D|--------5----------5-------------------------|-----|
A|-66-5-6---6/88-6-8---8-10-10------10-8-10-10-|-6-8-|
E|-----------------------------8-10------------|-----|

      "Never heard a word you said"
G|---|--------|
D|---|--rest--|
A|---|--------|
E|-3-|--------|

Chorus
                                      3x        1x
G|--------------------------------------|---------|
D|--------------------------------------|---------|
A|-11----0-1-33---33--------55-------55-|-111-----|
E|----33--------3-----33-66----33-66----|-----111-|

Interlude
G|--------------------|
D|--------------------|
A|--6-8-10--6-3-------|
E|--------------3-----|

Intro
Verse
Pre-Chorus
Chorus

Verse
Pre-Chorus
Chorus

Interlude 2x
Verse
Pre-Chorus
Chorus
Interlude 1x

The End!
If you notice anything different let me know thanks!