Exploding Hearts - Boulevard Trash Text Guitar Tab

Learn song with the online tabulature player
BOULEVARD TRASH

Intro
(hit chord once, and turn on and off the pickups. only works on some
guitars)
E |-------------------------------------------------------------------------|
B |-------------------------------------------------------------------------|
G |-7--7--7--7--7--7--7-----------------------------------------------------|
D |-7--7--7--7--7--7--7--7--------------------------------------------------|
A |-5--5--5--5--5--5--5--7--------------------------------------------------|
E |----------------------5--------------------------------------------------|


Verse
E |------------------------------------------------------------------------|
B |------------------------------------------------------------------------|
G |-2--2--4--2--2--4--2----------------------------------------------------|
D |-0--0--0--0--0--0--0--2--2--4--2--5--2--4--2----------------------------|
A |----------------------0--0--0--0--0--0--0--0----------------------------|
E |------------------------------------------------------------------------|

E |------------------------------------------------------------------------|
B |------------------------------------------------------------------------|
G |-2--2--4--2--2--4--2----------------------------------------------------|
D |-0--0--0--0--0--0--0--2--2----------------------------------------------|
A |----------------------0--0--3--4--5--0--3--4----------------------------|
E |------------------------------------------------------------------------|


Play over verse (listen to the song for when to play it)
E |-5--5-------|
B |-5--5--5h6--|
G |------------|
D |------------|
A |------------|
E |------------|


CHORUS
E |------------------------------------------------------------------------|
B |------------------------------------------------------------------------|
G |-------------7-----------------7----------------------------------------|
D |-5-----7-----7--7--5-----7-----7--7-----5--5--5--5-----7--7--7--7-------|
A |-5-----7-----5--7--5-----7-----5--7-----5--5--5--5-----7--7--7--7-------|
E |-3-----5--------5--3-----5--------5-----3--3--3--3-----5--5--5--5-------|

E |-------------------------5--5-------------------------------------------|
B |-------------------------5--5--5h6--------------------------------------|
G |-2--2--4--2--2--4--2----------------------------------------------------|
D |-0--0--0--0--0--0--0--2-------------------------------------------------|
A |----------------------0-------------------------------------------------|
E |------------------------------------------------------------------------|


SOLO
E |----10----------10----10-10----------10-10-13-10-10-13-10-10-13-10-10----|
B |/10----13-10-13-------------13-10-13-------12-10-10-12-10-10-12-10-10-13-|
G |----------------------------------------------------------------------12-|
D |-------------------------------------------------------------------------|
A |-------------------------------------------------------------------------|
E |-------------------------------------------------------------------------|

slide down entire low e string

E |-10-10-10-10----10-10-10----10-10----10-10-10-10-|
B |-10-10-10-10----10-10-10----10-10----10-10-10-10-|
G |-------------b12--------b12------b12-------------|
D |-------------------------------------------------|
A |-------------------------------------------------|
E |-------------------------------------------------|

E |-10----10----10-10----10-10----10-10-10----10-10-10-10----10-10-10-|
B |-10----10----10-10----10-10----10-10-10----10-10-10-10----10-10-10-|
G |-------------------------------------------------------------------|
D |-------------------------------------------------------------------|
A |-------------------------------------------------------------------|
E |-------------------------------------------------------------------|

E |-------10-------10-------10-------10-------10----13-10----10----10-------|
B |-------10-------10-------10-------10-------10----12-10----10----10-10----|
G |-10h11----10h11----10h11----10h11----10h11------------b12---b12------b12-|
D |-------------------------------------------------------------------------|
A |-------------------------------------------------------------------------|
E |-------------------------------------------------------------------------|

E |------------------|
B |------------------|
G |-12-10----10-12---|
D |-------12---------|
A |------------------|
E |------------------|

E |-------------------------5--5-------|
B |-------------------------5--5--5h6--|
G |-2--2--4--2--2--4--2----------------|
D |-0--0--0--0--0--0--0--2-------------|
A |----------------------0-------------|
E |------------------------------------|

OUTRO
slide down entire low e string
E |------------------------------------|
B |------------------------------------|
G |----------------------------------7-|
D |----------------------------------7-|
A |----------------------------------5-|
E |------------------------------------|


http://www.explodinghearts.com/