Exploding Hearts - Im A Pretender Text Guitar Tab

Learn song with the online tabulature player
I'M A PRETENDER


E |----------------------7--7-3-------------------------------------|
B |----------------------7--7-3-------------------------------------|
G |-7--------------------8--8-4-----------------7--7----------------|
D |-7--------------------9--9-5-----------------7--7----------------|
A |-5--5-h7--5-----------9--9-5--5-h7--5-----5--5--5--------5-------|
E |-------------7--5--7--7--7-3-----------7-----------5-h7----------|

E |----------------------7--5--3-------------------------------------|
B |----------------------7--5--3-------------------------------------|
G |-7--------------------8--6--4-----------------7--7--7--7----------|
D |-7--------------------9--7--5-----------------7--7--7--7----------|
A |-5--5-h7--5-----------9--7--5--5-h7--5-----5--5--5--5--5----------|
E |-------------7--5--7--7--5--3-----------7-------------------------|


Play 2x during intro
E |-10-10-10-10-12-10-10-------------10----10-10---------------------|
B |----------------------12-10-12-12----12---------------------------|
G |------------------------------------------------------------------|
D |------------------------------------------------------------------|
A |------------------------------------------------------------------|
E |------------------------------------------------------------------|

E |----------------7--x--7--7-----3--x--3--3-------------------------|
B |----------------7--x--7--7-----3--x--3--3--7--8--7--8-------------|
G |-7--x--7--7-----8--x--8--8-----4--x--4--4--7--7--7--7-------------|
D |-7--x--7--7-----9--x--9--9-----5--x--5--5--7--7--7--7-------------|
A |-5--x--5--5-----9--x--9--9-----5--x--5--5--5--5--5--5-------------|
E |----------------7--x--7--7-----3--x--3--3-------------------------|


Solo
E |----5-----5-----5-----5-----<-Play 4 times------------------------|
B |-7-----7-----7-----7--------<-------------------------------------|
G |------------------------------------------------------------------|
D |------------------------------------------------------------------|
A |------------------------------------------------------------------|
E |------------------------------------------------------------------|

E |-12-12-12-10-12-10-12-10-10-12-10-12-12-12-10-12-10-12-10-10-12-10-|
B |-------------------------------------------------------------------|
G |-------------------------------------------------------------------|
D |-------------------------------------------------------------------|
A |-------------------------------------------------------------------|
E |-------------------------------------------------------------------|

E |------------------------------------------------------------------|
B |-12-12-12-10-12-10-12-10-10-12-10-12------------------------------|
G |-------------------------------------9--9--9--9--9--9--9--9--9----|
D |------------------------------------------------------------------|
A |------------------------------------------------------------------|
E |------------------------------------------------------------------|

E |----10-10h12-10-12/14-17-17-17h19-17-22-22-19-22-22-19-22---------|
B |------------------------------------------------------------------|
G |-7----------------------------------------------------------------|
D |------------------------------------------------------------------|
A |------------------------------------------------------------------|
E |------------------------------------------------------------------|

E |-10-12-10-12b-12b-12-10-12-10-----10-10----10-10----10-10----10---|
B |-------------------------------12-------12-------12-------12------|
G |------------------------------------------------------------------|
D |------------------------------------------------------------------|
A |------------------------------------------------------------------|
E |------------------------------------------------------------------|

http://www.explodinghearts.com/