Eyes Adrift - What I Said Text Guitar Tab

Learn song with the online tabulature player
Tune to EADG, get a light gauge pick (if you want to play it like Krist.) and heres the full tab.
Verse
G|----------------------------------------------------------|
D|----------------------------------------------------------|
A|--5-5---3-0-0--2-3-3-2-0----2-3---------------------------|
E|------------------------3-3-------------------------------|

G|----------------------------------------------------------|
D|--------------------------5-5-3-2-------------------------|
A|--5-5---3-0-0--2-3-3-2-0----------------------------------|
E|----------------------------------------------------------|

Chorus

G|----------------------------------------------------------|
D|----------------------------------------------------------|
A|--5-5-5-5-5-5-5-5-----------------------------------------|
E|------------------5-5-5-5-5-5-5/7---3-3-3-3-3-3-3---------|