Eyes Set To Kill - Behind These Eyes Chords

Main Riff
 
         
         
         
         
         
1
3
4
2
1
1
5 fr
         
         
         
         
         
X
4
3
1
2
1
3 fr
         
         
         
         
         
X
X
1
2
4
3
         
         
         
         
         
X
X
3
2
1
1
8 fr
         
         
         
         
         
X
1
3
3
3
1
10 fr
         
         
         
         
         
4
3
1
1
1
X

10 fr
         
         
         
         
         
3
2
1
1
1
4
         
         
         
         
         
X
X
2
3
1
5 fr
         
         
         
         
         
X
1
3
4
2
1
10 fr
         
         
         
         
         
X
X
1
1
1
5 fr
         
         
         
         
         
X
X
3
2
1
2 fr
         
         
         
         
         
X
4
3
1
2
X
10 fr
         
         
         
         
         
1
3
4
1
1
1

12 fr
         
         
         
         
         
X
X
1
3
4
2
         
         
         
         
         
X
1
2
3
5 fr
         
         
         
         
         
1
3
4
2
1
1
2 fr
         
         
         
         
         
X
1
1
1
4
         
         
         
         
         
X
X
1
2
2 fr
         
         
         
         
         
3
2
1
1
1
4
7 fr
         
         
         
         
         
X
X
1
3
4
3

9 fr
         
         
         
         
         
X
4
3
1
2
1
12 fr
         
         
         
         
         
X
1
3
3
3
1

B

variations
         
         
         
         
         
X
1
2
3
4
1
6 fr
         
         
         
         
         
1
3
4
2
1
1
         
         
         
         
         
X
1
4
4
4
X
         
         
         
         
         
X
1
X
3
4
1
3 fr
         
         
         
         
         
3
2
1
1
1
4
8 fr
         
         
         
         
         
X
X
1
3
4
3

10 fr
         
         
         
         
         
X
4
3
1
2
1
3 fr
         
         
         
         
         
1
3
4
1
1
1
5 fr
         
         
         
         
         
X
X
1
3
4
2
3 fr
         
         
         
         
         
X
X
3
1
1
1
         
         
         
         
         
1
X
2
3
4
         
         
         
         
         
3
1
X
X
X
         
         
         
         
         
2
1
3
4

7 fr
         
         
         
         
         
X
4
3
1
2
X
10 fr
         
         
         
         
         
X
1
3
4
2
1
         
         
         
         
         
X
3
2
1
3 fr
         
         
         
         
         
X
1
2
3
4
1
8 fr
         
         
         
         
         
1
3
4
2
1
1
3 fr
         
         
         
         
         
X
1
X
3
4
1
5 fr
         
         
         
         
         
3
2
1
1
1
4
10 fr
         
         
         
         
         
X
X
1
3
4
3

12 fr
         
         
         
         
         
X
4
3
1
2
1
3 fr
         
         
         
         
         
X
         
         
         
         
         
3
2
1
         
         
         
         
         
X
X
2
1
5 fr
         
         
         
         
         
X
3
1
1
1
X
5 fr
         
         
         
         
         
X
3
1
1
1
4
3 fr
         
         
         
         
         

A

variations
4 fr
         
         
         
         
         
1
3
4
2
1
1
4 fr
         
         
         
         
         
X
X
3
2
1
1
6 fr
         
         
         
         
         
X
X
1
2
4
3
         
         
         
         
         
3
2
1
1
1
4
8 fr
         
         
         
         
         
X
4
3
1
2
1
11 fr
         
         
         
         
         
X
1
2
3
4
X

11 fr
         
         
         
         
         
X
1
3
3
3
1
No chord
    
Standard guitar tuning:
E
A
D
G
B
E
No capo
Key: F Chords used:

Intro

Dm

Verse 1

DmColour the Adark Bpast

A

DmFill blank Alines with Bwhite lies stop to think Athen cover Dmup Amy memoDmries (My BmemoAries) DmFill blank Alines with Bwhite lies stop to think Athen cover Dmup

Refrain

B It’s this distance we Dmneed

B

It’s this distance we Dmneed (to forget)

Chorus

B These miles give Gmme the time to Dmthink of the differences we Bmake With you I’ll Gmalways be misDmsing BNow that I hear my Gmheart clearly

Dm

SBpeak through my heart Gmnow that I’ve changed

Dm

BAll the lies that Fhide my

Dm

B All the lies hide Fbehind my eyes

Verse 2

DmBring back Anight to Bday (feel my heartbeat) DmTo eArase the Bpain Dm (When the Asunset Bfades the moonlight Gmtears my body Dm til Amorning Brays bring me to a Gmbetter place)

C

Guitar solo

Moderate: Dm--Bb-Dm x4

Dm

e|---------5-------10----------17----------| B|-------6---6---6----10----------18-17-18-| G|-----7-------7---------10----------------| D|---7----------------------12-------------| A|-5---------------------------------------| E|-----------------------------------------|
e|---------5-------10----------15h17p15-13h15p12-|
B|-------6---6---6----10-------------------------|
G|-----7-------7---------10----------------------|
D|---7----------------------12-------------------|
A|-5---------------------------------------------|
E|-----------------------------------------------|
                     B
e|---------5-----17-18-17-16-13-12-13-------|
B|-------6---6------------------------13----|
G|-----7-------7-------------------------14-|
D|---7--------------------------------------|
A|-5----------------------------------------|
E|------------------------------------------|
                     Dm
e|---------5-------10----------15h17p15-13h15p12-|
B|-------6---6---6----10-------------------------|
G|-----7-------7---------10----------------------|
D|---7----------------------12-------------------|
A|-5---------------------------------------------|
E|-----------------------------------------------|
                        Dm
e|--------------------------------------------------------|
B|--------------------------------------------------------|
G|-7-7--7-7----------------5--7-7--7-7--------------2-----|
D|-7-7--7-7--3h5p3--2h3p2-----7-7--7-7--3h5--2h3p2--------|
A|-5-5--5-5-------------------5-5--5-5--------------------|
E|--------------------------------------------------------|
              B                         Dm              | x2
e|---------------------------|----------------------------|
B|---------------------------|----------------------------|
G|-3-3--3-3----------------5-|-7-7--7-7--------------2----|
D|-3-3--3-3--3h5p3--2h3p2----|-7-7--7-7--3h5--2h3p2-------|
A|-1-1--1-1------------------|-5-5--5-5-------------------|
E|---------------------------|----------------------------|
Very Fast: You must learn the sweeping technique like Matt Tuck and Padge of Bullet for my Valentine do to play this very fast part!!! This part is Triplets Bb--C--Dm--C/E-F-- x3, Bb--C-
                  B                                      C
E|--13----------------13----------------|-15----------------15-------------------|
B|-----15----15----------15----15-------|----17----17----------17----17----------|
G|--------15----15----------15----15----|-------17----17----------17----17-------|
D|-----------------15----------------15-|----------------17----------------17----|
A|--------------------------------------|----------------------------------------|
E|--------------------------------------|----------------------------------------|
| x3

Dm C/E

e|-17----------------------------------|-20----------------|-17------------------|
B|----18----18-------20----------------|----22----22-------|----18----18---------|
G|-------19----19-------21----21-------|-------22----22----|-------17----17------|
D|----------------19-------22----22----|----------------22-|----------------15---|
A|----------------------------------19-|-------------------|---------------------|
E|-------------------------------------|-------------------|---------------------|
                  B                                   C
E|--13----------------13----------------|-15-----------------17h18-17-|
B|-----15----15----------15----15-------|----17----17-----------------|
G|--------15----15----------15----15----|-------17----17--------------|
D|-----------------15----------------15-|----------------17-----------|
A|--------------------------------------|-----------------------------|
E|--------------------------------------|-----------------------------|

Outro

(DmLet it go pull the Aweight off my shoulders Dmlets hope for a Anew beginning DmWe’ll set our Afeelings aside Dmand forget Fwhat we’ve said Dmthere’s not Aenough time to hide Dm behind these Aeyes of regret)A

All Content on this page is the property of the copyright owner of the original composition.