Eyes Set To Kill - Young Blood Spills Tonight Text Guitar Tab

Learn song with the online tabulature player
Standard Tuning

INTRO-clean   
Figure the pattern out on your own :P                   
e|--1--------1--------1--------0----------------------|       
B|--2--------3--------1--------1----------------------|
G|--3--------3--------2--------0----------------------|        x3
D|--0--------3--------3--------2----------------------|
A|--0--------1--------3--------3----------------------|
E|--------------------1-------------------------------|


Simple sweep picking rift:

E|----1-----------|
B|---3-3----------|
G|--3---3---------|       x4
D|-3--------------|
A|----------------|
E|----------------|

E|----1-----------|
B|---3-3----------|
G|--2---2---------|       x4
D|-0--------------|
A|----------------|
E|----------------|

E|----1-----------|
B|---3-3----------|
G|--3---3---------|       x4
D|-3--------------|
A|----------------|
E|----------------|


E|----1-----------|
B|---1-1----------|
G|--2---2---------|       x2
D|-3--------------|
A|----------------|
E|----------------|

E|----0-----------|
B|---1-1----------|
G|--0---0---------|       x2
D|-2--------------|
A|----------------|
E|----------------|

E|----------------------------------------------------|
B|----------------------------------------------------|
G|--7-7777-14-14-14-14-12-12-12-12-10101010-----------|
D|--7-7777--------------------------------------------|
A|--5-5555-12-12-12-12-10-10-10-10-8-8-8-8------------|
E|----------------------------------------------------|

E|----------------------------------------------------|
B|----------------------------------------------------|
G|----------------------------------------------------|
D|---8888888888888888---------------------------------|
A|---8888888888888888---------------------------------|
E|---6666666666666666---------------------------------|
           
E|----------------------------------------------------|
B|----------------------------------------------------|
G|---7-7777-10101010-14-14-14-14-17-17-17-17----------|
D|---7-7777-------------------------------------------|
A|---5-5555-8-8-8-8--12-12-12-12-15-15-15-15----------|
E|----------------------------------------------------|

E|----------------------------------------------------|
B|----------------------------------------------------|
G|---7-7-7-7-9-9-9-9-10101010-15-15-15-15-------------|
D|----------------------------------------------------|
A|---5-5-5-5-7-7-7-7-8-8-8-8--13-13-13-13-------------|
E|----------------------------------------------------|

E|-------0--------|
B|-----6--6-------|
G|----7-7---------|           x4
D|---0------------|
A|----------------|
E|----------------|

E|----------------------------------------------------|
B|----------------------------------------------------|
G|----------------------------------------------------|
D|---88888-(88888)-77777-(77777)----------------------|
A|---88888-(88888)-77777-(77777)----------------------|
E|---66666-(66666)-55555-(55555)----------------------|

E|---------------------------|
B|---------------------------|
G|---7~~-14~~-12~~-9~~-------|
D|---------------------------|
A|---5~~-12~~-10~~-7~~-------|
E|---------------------------|

E|----------------------------------------------------|
B|----------------------------------------------------|
G|----------------------------------------------------|
D|---88888-(88888)-77777-(77777)----------------------|
A|---88888-(88888)-77777-(77777)----------------------|
E|---66666-(66666)-55555-(55555)----------------------|

E|----------------------|
B|-------6--5-6---------|
G|---7-7--7-------------|         x4
D|----------------------|
A|----------------------|
E|----------------------|

E|----------------------------------------------------|
B|----------------------------------------------------|
G|----------------------------------------------------|
D|---88888-(88888)-77777-(77777)----------------------|
A|---88888-(88888)-77777-(77777)----------------------|
E|---66666-(66666)-55555-(55555)----------------------|

E|---------------------------|
B|---------------------------|
G|---7~~-14~~-12~~-9~~-------|
D|---------------------------|
A|---5~~-12~~-10~~-7~~-------|
E|---------------------------|

E|----------------------------------------------------|
B|----------------------------------------------------|
G|----------------------------------------------------|
D|----------------------------------------------------|
A|---88888-(88888)-77777-(77777)----------------------|
E|---66666-(66666)-55555-(55555)----------------------|

E|----------------------------|
B|---8p10p8-------------------|
G|----------10-9----9---------|       x4
D|---------------10-----------|
A|----------------------------|
E|----------------------------|

E|----------------------|
B|-------6--5-6---------|
G|---7-7--7-------------|         x4
D|----------------------|
A|----------------------|
E|----------------------|

E|----------------------------|
B|---8p10p8-------------------|
G|----------10-9----9---------|       x4
D|---------------10-----------|
A|----------------------------|
E|----------------------------|

E|----------------------|
B|-------6--5-6---------|
G|---7-7--7-------------|         x4
D|----------------------|
A|----------------------|
E|----------------------|

E|----------------------------|
B|---8p10p8-------------------|
G|----------10-9----9---------|       x4
D|---------------10-----------|
A|----------------------------|
E|----------------------------|

E|----------------------|
B|-------6--5-6---------|
G|---7-7--7-------------|         x4
D|----------------------|
A|----------------------|
E|----------------------|

E|----------------------------|
B|---8p10p8-------------------|
G|----------10-9----9---------|       x4
D|---------------10-----------|
A|----------------------------|
E|----------------------------|

E|----------------------|
B|-------6--5-6---------|
G|---7-7--7-------------|         x4
D|----------------------|
A|----------------------|
E|----------------------|


E|---------------8p5---------------------------------|   \
B|------6---5h6------6----5h6------------------------|    \
G|--------7-----7-------7-----7----------------------|     \
D|-----7--------------7------------------------------|      \
A|---5-----------------------------------------------|       \
E|---------------------------------------------------|        \
                                                              X4
E|----------6---------5------------------------------|        /
B|------------6--6------5---5------------------------|       /
G|-------7------7---------7---7----------------------|      /
D|-----8---8--------------------8---8----------------|     /
A|---8----------------------------8------------------|    / 
E|---------------------------------------------------|   /


E|----------------------------------------------------|  
B|----------------------------------------------------|   \
G|---7-7-7777--14---7-7-7777--14----------------------|    \
D|---7-7-7777--12---7-7-7777--12----------------------|     \   
A|---5-5-5555-------5-5-5555--------------------------|      \
E|----------------------------------------------------|       \ 
                                                              X2
E|----------------------------------------------------|       /
B|----------------------------------------------------|      /
G|----------------------------------------------------|     /
D|---8-8-8888--15---7-7-7777--14----------------------|    /
A|---8-8-8888--13---7-7-7777--12----------------------|   /
E|---6-6-6666-------5-5-5555--------------------------|


E|----------------------------------------------------|  \
B|----------------------------------------------------|   \
G|----------------------------------------------------|    \
D|------7---5p7p5p7--7-5p7p5--------------------------|     \
A|---5-5--5---------5---------------------------------|      \
E|----------------------------------------------------|       \
                                                               X2
E|----------------------------------------------------|       /
B|----------------------------------------------------|      /  
G|----------------------------------------------------|     /
D|------8--5p7p5p7--7-5p7p5---------------------------|    /
A|----------------------------------------------------|   /
E|--6-6--6---------5----------------------------------|  /


E|--1~~~~------|
B|--2~~~~------|
G|--3~~~~------|
D|--0~~~~------|
A|--0~~~~------|
E|-------------|