Eyescream - Without You Text Guitar Tab

Learn song with the online tabulature player
Without You
By: Eyescream

Aztig tong kantang to, galing talaga ng eyescream!!! Rock on!

Riff 1
e|----------------------------------------------------------------------------|
B|-3-3-3-3-3-3-3-3-3-3-3-3-3-3-3-3--------------------------------------------|
G|--0-0-0-0-0-0-0-0-0-0-0-0-0-0-0-0-------------------------------------------| 
D|---------0---0---2---2------------------------------------------------------|
A|-------------------------3---3----------------------------------------------|
E|-3---3----------------------------------------------------------------------|
    G      D       Em       C

Riff 2
e|-3---------------2/3\2/3\2/3\2----------------------------------------------|
B|---------3------------------------------------------------------------------|
G|------------------------------4/5\4/5\4/5\4---------------------------------| 
D|----------------------------------------------------------------------------|
A|----------------------------------------------------------------------------|
E|----------------------------------------------------------------------------|

Riff 3
E|-----10----10-----10----10--------------------------------------------------|
B|-8-8---8-8----8-8----88-----------------------------------------------------|
G|----------------------------------------------------------------------------| 
D|----------------------------------------------------------------------------|
A|----------------------------------------------------------------------------|
E|----------------------------------------------------------------------------|
Paulit-ulit lang to…
Riff 4
E|-3-2---3-2---3-2---3-2---3-2----|
B|-----3-----3-----3-----3-----3--|
G|--------------------------------| ulit-ulit lang tapos
D|--------------------------------|
A|--------------------------------|
E|--------------------------------|

E|-------8(hold)--------------------------------------------------------------|
B|-5-5-5----------------------------------------------------------------------|
G|----------------------------------------------------------------------------| 
D|----------------------------------------------------------------------------|
A|----------------------------------------------------------------------------|
E|----------------------------------------------------------------------------|

Intro:
Riff 1          x1
Riff 1+Riff2    x2

Verse 1:
Riff 1x2 or
 G D Em C x2

Start a new day
Slowly I hear them say
Remembering the moments
Like they pass by

Em C x2
I’m choking
I’m drowning

Chorus I:
G D Em C + Riff 1 x2

I cannot breathe without you
Without you in my life
I cannot choose what is right
Without you in my life

Riff 1+ Riff 2

Verse 2:
G D Em C + Riff 1 x2

Dark clouds are fading
As the bright lights feed the rain
Something is missing
Will you stay?

Em C x2
I’m choking
I’m drowning

Chorus II:
G D Em C + Riff 3

I cannot breathe without you
Without you by my side
I cannot live without you
Without you in my life

Bridge:
G Em G Em G Em C D + Riff 4

Don’t say it is over
Can’t you see my life is such a mess
This feeling grow colder
Inside…

Riff 1 x2
In my heart…
In my mind…

C5 D5 E5 D5 x2 end in C5
[scream here hehe ]


I’m not sure yet sa ibang parts (ung chords sa Bridge mali ata…)
Email me at exloop9955@yahoo.com kung may corrections, thanxx
Add nyo na rin friendster ko, wahahaha