Ezra Band - Runaway Text Guitar Tab

Learn the song with the online tablature player
Hey! Sorry but I do not have the idea about the tabs of
the verses, so i just put the chords. Hope you like and
appreciate it!

Intro

/ - slide

e|---------------------------------------------------------------|
b|-1-2/4-4-1-2-1---------------------1-2/4-4-1-2-1-------4/6-2-1-|
g|---------------3-1---1-0-1-1-0-1-3---------------3-1-----------|
d|---------------------------------------------------------------|
a|---------------------------------------------------------------|
E|---------------------------------------------------------------|

Verse 1

G        Am  C                     G       Am  C
Say it's true, there's nothing like me and you
G     Am  C            G       Am  C
Not alone, tell me you feel it too

              Em       C
Cause I would run away
        Am          D
I would run away, yeah, yeah
        Em       C
I would run away
        Am               D C
I would run away with you

Chorus

      G Am   C                G Am C
Cause I-I-I  I have fallen in love
      G       Am        C
With you, no never hey, hey
                G     Am         C
I'm never gonna stop falling in love with you

Repeat Intro:

e|---------------------------------------------------------------|
b|-1-2/4-4-1-2-1---------------------1-2/4-4-1-2-1-------4/6-2-1-|
g|---------------3-1---1-0-1-1-0-1-3---------------3-1-----------|
d|---------------------------------------------------------------|
a|---------------------------------------------------------------|
E|---------------------------------------------------------------|

Verse 2

G         Am C            G       Am    C
Close the door, lay down upon the floor
       G     Am   C                 G           Am    C
And by candlelight, make love to me through the night

              Em       C
Cause I would run away
        Am            D
I would run away, yeah, yeah
        Em       C
I would run away
        Am            D C
I would run away with you

Chorus

 G Am   C                G Am C
Cause I-I-I  I have fallen in love
      G       Am        C
With you, no never hey, hey
                G     Am         C
I'm never gonna stop falling in love with you

(Instrumentals)

Chorus

G Am   C                G Am C
Cause I-I-I  I have fallen in love
      G       Am        C
With you, no never hey, hey
                G     Am         C
I'm never gonna stop falling in love
G    Am          C
Stop falling in love
        G Am C
With you

Hope you like it!! :)
Please vote, rate, comment...
Thank you XD