Faber Drive - Second Chance Text Guitar Tab

Learn song with the online tabulature player
Second Chance
Faber Drive
Yannick

Intro

E/----------------------------------11-12----|
B/-12-12-12---10-10-10---9-9--x2------0--0---| x4
G/--9--9--9----9--9--9---9-9-----------------|
D/-------------------------------------------|
A/-------------------------------------------|
E/-------------------------------------------|

E/-----7----7--------------------------------------------7----7------------|
B/---------------7--9-x2-------7------------7--------------------7-9-7-9---|
G/-999---99----9--9-----------------9------------9---888---88------------9-|
D/-------------------------999---99-----999---99---------------------------|
A/-------------------------------------------------------------------------|
E/-------------------------------------------------------------------------|

Do the second line for the chorus.
The chords for thr rest of the song are: E,C#,A,B