Fabrizio De Andre - Fiume Sand Creek Text Guitar Tab

Learn song with the online tabulature player
INTRO

G |----------------|----------------|----------------|----------------|
D |----10-10-------|----10-10-------|----10-10-------|----10-10-------|
A |-10-------10----|-10-------10----|-10-------10----|-10-------10----|
E |-------------8--|-------------8--|-------------8--|-------------8--|

VERSO E RITORNELLO

G |----------------|----------------|----------------|----------------|
D |----10-10-------|----------------|----10-10-------|----10-10-------|
A |-10-------10----|-10-8-8-8-------|-10-------10----|-10-------10----|
E |-------------8--|----------------|-------------8--|-------------8--|

G |----------------|----------------|----------------|----------------|
D |----10-10-------|----------------|----10-10-------|----10-10-------|
A |-10-------10----|-10-8-8-8-------|-10-------10----|-10-------10----|
E |-------------8--|----------------|-------------8--|-------------8--|

G |----------------|----------------|----------------|
D |----------------|----10-10-------|----10-10-------|
A |---------------3|-10-------10----|-10-------10----|
E |-3-3-1-3-3-1-1--|-------------8--|-------------8--|

La canzone è costituita da questo giro, da ripetere quindi per le altre strofe. 
imperfezioni!