Faith Hill - Breathe Text Guitar Tab

Learn song with the online tabulature player
-------------------------------------------------------------------------------
                             BREATHE - Faith Hill
-------------------------------------------------------------------------------

This is a pretty song to play on guitar, and also easy. I only tabbed out the intro 
once you learn that, you can pretty much figure out the rest of the song. Enjoy!

Tuning: Standard

e|-----------------------------------------------------------------------|
B|-----1-------------3-------------3-------------3-------------1---------|
G|-------0---0---------0---0---------0---0---------0---0---------0---0---|
D|---2-----2-------0-----0-------2-----2-------0-----0-------2-----2-----|
A|-0-------------2-------------3-------------2-------------0-------------|
E|-----------------------------------------------------------------------|

e|---------------------------0--|
B|-----3-------------3-------3--|
G|-------0---0---------0-----0--|
D|---0-----0-------2-----2---2--|
A|-2-------------3-----------3--|
E|------------------------------|