Farin Urlaub Racing Team - Zehn Text Guitar Tab

Learn song with the online tabulature player
Dies ist meine erste Tabulatur, bitte nicht meckern.
This is the first time I'm writing down tabs so please ignore mistakes :)

Das ganze Lied ist einen Halbtonschritt tiefer gespielt
--> Gitarre tiefer stimmen
The whole song is played one step lower (example: for E you've got to play Eb )


Strohpen (Basslinie / bass line)

e ------------------------------------------------------|
h ------------------------------------------------------| (in english: b)
g ------------------------------------------------------|
D ------------------------------------------------------|
A -----------------0-0-0-0-0-0-0-0----------------------|
E -0-0-0-0-3-3-3-3--------------------------------------|

Übergang zum Refrain / Change to Chorus:

e ------------------------------------------------------|
h ------------------------------------------------------|
g ------------------------------------------------------|
D ------------------------------------------------------|
A -3-3-3-3-3-3-2-2-0-0-0-0-0-0-0-0----------------------|
E ------------------------------------------------------|

Refrain /Chorus:


   E       G       A      A#

e ---------3-------5------6-----------------------------|
h ---------3-------5------6-----------------------------|
g -1-------4-------6------7-----------------------------|
D -2-------5-------7------8-----------------------------|
A -2-------5-------7------8-----------------------------|
E ---------3-------4------5-----------------------------|

for timing it right just listen to the song!

Lukipela