Fat Joe - Make It Rain Text Guitar Tab

Learn song with the online tabulature player
Intro

e|---------------------|
B|---------------------|
G|---------------------|
D|---------------------|
A|--------2-0-----3-2--|
E|--0-2-3-----3-2------|

Verse

E G A E

Chorus    (same chords)


e|-----------------------------5-7---5-5-5-5-5-3-2---3-3-3-3-3-2-0---|
B|--5-5-5-5-5-7-8----8-8-8-8-8---------------------------------------|
G|-------------------------------------------------------------------|
D|-------------------------------------------------------------------|
A|-------------------------------------------------------------------|
E|-------------------------------------------------------------------|