Fatboy Slim - Push And Shove Text Guitar Tab

Learn song with the online tabulature player
This is the bass tab for Push and Shove...
a great song to relax to, not a very interesting bassline, but it sounds nice... so here it is...

First time:

G --------------------------------|
D --------------------------------|
A -/6-6-4-4-4-4-4-2---11-11-9-11--|
E ------------------4-------------|



G --------------------------------|
D --------------------------------|
A -4/6-6-4-4-4-4-4-2---11-11-9-11-|
E ------------------4-------------|

it kinda goes on like this for the rest of to song
there may be some little bridges in the end with the -11-11-9-11-
but nothin much..
so i hope its right 

by Skickz