Father Ted - My Lovely Horse Text Guitar Tab

Learn song with the online tabulature player
My Lovely Horse - Father Ted                  
Tabbed By : Corncat29

Tuning: Standard

G|------0---000--000--000--000--0--0---0--0---0--0---0---------------------|
D|------------------------------------------------------2------------------|
A|-------------------------------------------------------------------------|
E|-------------------------------------------------------------------------|
                                My lovely lovely lovely horse

G|-----0-------------------------------------------------------------------|
D|--------2---------------0-----------------------2----3-----3---3---3-----|
A|------------3--------------3--2--0----2----3-----------------------------|
E|---------------3---------------------------------------------------------|
       My lovely horse             running through the field

G|-0--------0----0-----0-------------------------------2--2--2--2-0--------|
D|------------------------------2------2----2----2------------------3-3-3-3|
A|-------------------------------------------------------------------------|
E|-------------------------------------------------------------------------|
   Where're you going with your fetlocks blowing in the wind?
   I want to shower you with sugar lumps, and ride you over fences

G|-0---0-------0-------0---------------------------------------------------|
D|--------------------------2---2---2--2---------------------------0-0-0-0-|
A|-----------------------------------------0--0-------0------0-------------|
E|-------------------------------------------------------------------------|
    Polish your hooves every single day, and take you to the horse dentist

G|------0--0---0--0---0--0---0---------------------------------------------|
D|-------------------------------2-----------------------------------------|
A|-------------------------------------------------------------------------|
E|-------------------------------------------------------------------------|
        My lovely lovely lovely horse

G|-----0-------------------------------------------------------------------|
D|--------2---------------0-----------------------2----3-----3---3---3-----|
A|------------3--------------3--2--0----2----3-----------------------------|
E|---------------3---------------------------------------------------------|
       My lovely horse             you're a pony no more

G|-0--------0----0-----0-------------------------2--2--2--2---0------------|
D|------------------------2------2----2----2----------------------3-3-3-3--|
A|-------------------------------------------------------------------------|
E|-------------------------------------------------------------------------|
  Running around with a man on your back like a train in the night (Oh yeah,
                                                  like a train in the night)

G|-0------0----0-----0-------------------------2--2--2--2---0--------------|
D|------------------------2------2----2----2--------------------3-3-3-3----|
A|-----------------------------------------------------------------------3-|
E|-------------------------------------------------------------------------|
   (Sax solo!)