Feel - Jak Aniola Glos Chords

 
No chord
    
Standard guitar tuning:
E
A
D
G
B
E
No capo

Intro

------3-----3--------2-----2---------0-----0--------0-----0-------|
--------0-----0--------3-----3---------0-----0--------1-----1-----|
----0-----3--------2-----2---------0-----0--------0-----0---------|
-----------------0------------------------------------------------|
--------------------------------2--------------3------------------|
--3---------------------------------------------------------------|
------3-----3--------2-----2---------0-----0--------0-----0-------|
--------0-----0--------3-----3---------1-----1--------1-----1-----|
----0-----3--------2-----2---------0-----0--------0-----0---------|
-----------------0------------------------------------------------|
--------------------------------3--------------3------------------|
--3---------------------------------------------------------------|
Jak Anioła głos, usłyszałem ją. Powiedziała: "Patrz-tak to on." Na rozstaju dróg stoi dobry Bóg, on rozkaże Ci drogę... Już pod koniec dnia widzę obraz Twój, G D widzę miejsca, w których był, widzę ludzi tłum. C G Już pod koniec dnia pustej szklanki dźwięk G D To chyba sen... C no,no,no,no,no,no Już pod koniec dnia widzę obraz Twój G D W pustej szklance pomarańcze- to dobytek mój C G Już pod koniec dnia pustej szklanki dźwięk G D To chyba sen... C Ref. Jak Anioła głos, usłyszałem ją. G D Powiedziała: "Patrz-tak to on." e C Na rozstaju dróg stoi dobry Bóg, on rozkaże G D Ci drogę... C Już pod koniec dnia widzę obraz Twój G D Widzę usta, w których nieraz swój topiłem ból C G Już pod koniec dnia, słyszę cichy szept. G D To chyba sen... no,no,no,no,no,no Już pod koniec dnia widzę obraz Twój, G D widzę dłonie, czuje serce - to ideał mój C G Już pod koniec dnia - lecz nie sam, lecz nie sam... G D Ref. Jak Anioła głos, usłyszałem ją. G D Powiedziała: "Patrz-tak to on." e C Na rozstaju dróg stoi dobry Bóg, on rozkaże G D Ci drogę... C Jak Anioła głos, usłyszałem ją. G D Powiedziała: "Patrz-tak to on." e C Na rozstaju dróg stoi dobry Bóg, on rozkaże G D Ci drogę... C

All Content on this page is the property of the copyright owner of the original composition.