Feelers - Venus Text Guitar Tab

Learn song with the online tabulature player
Tabbed by the slayer\simon

This tab rules and its around about right to. Please rate.
So here you are

Intro\Riff
E|-----------------------------------------------------------------|
B|-----------------------------------------------------------------|
G|-----------------------------------------------------------------|
D|--12-12-12-12-12-12-12--12-12-12-12-12-12------------------------|
A|--10-10-10-10-10-10-10---9--9--9--9--9--9--9---------------------|
E|-----------------------------------------------------------------|

E|----------------------------------------------|
B|----------------------------------------------|
G|----------------------------------------------|
D|-10-10-10-10-10-10--5555555-------------------|
A|--8--8--8--8--8--8--8---3333333---------------|
E|----------------------------------------------|

If you want use 3 strings second time throught it sounds good that way

                                                ENJOY