Feeling - Kettles On Text Guitar Tab

Learn song with the online tabulature player
-------------------------------------------------------------------------------
			     Kettle's On - The Feeling
-------------------------------------------------------------------------------

Tabbed By : Nightmare_xxx
e-mail: ali.johnstone@mac.com

Tuning: EADG

This is the basic outline of it, it isn't wrong but I didn't work out all the fills (and 
are a few). They're mainly just slides between notes, with a couple of little walking 
They aren't necessary but you can work them out if you feel like it.

Intro and verse

G|----------------------5------------------------------------------------------|
D|------------------5--------5-3-5------------------------------------ --------|
A|---3-3-3-3-3-----------------------------------------------------------------|
E|-----------------------------------------------------------------------------|

Chorus

G|-----------------------------------------------------------------------------|
D|-5-5-5-5--7-7-7-7--3-3-3-3-2-2-2020------------------------------------------|
A|-----------------------------------------------------------------------------|
E|-----------------------------------------------------------------------------|

At the end of the chorus, it does something like this, before going back into the verse.

G|---------------------------------------------------------------------------|
D|---5~--------7~----8~------------------------------------------------------|
A|------------------------------0/3------------------------------------------|
E|---------------------------------------------------------------------------|

Outro

G|---------------------------------------------------------------------------|
D|----5----7----3----2-------------------------------------------------------|
A|---------------------------------------------------------------------------|
E|---------------------------------------------------------------------------|


| /  slide up
| \  slide down
| h  hammer-on
| p  pull-off
| ~  vibrato
| +  harmonic
| x  Mute note
===============================================================================