Feist - My Moon My Man Text Guitar Tab

Learn song with the online tabulature player
Alright, I've looked at the current tabs for this song and wasn't happy. 
So here is my version.

First off I follow what the bass plays:

G|-----------------------------------------|
D|---------------------2-2-2-2-2-2---------|
A|0-0-0-0-0-0-0-0--3-3---------------------|
E|---------------------------------0-3-3---|

E|-----------------------------------------|
B|-----------------------------------------|
G|----------------9------------------------|
D|-7------10------9--x6--0-5-5-------------|
A|-7--x6--10--x2--7------0-5-5-------------|
E|-5------8--------------0-3-3-------------|

The same thing plays throughout the entire song. 
But at the part "Take it slow...." I like to spice it up and play: 

"Take is slow.." "Shed some light..." "Take it slow...shed some light on please"
E|-7--------------7--------------------7------7--14----------------|
B|-8--10----------8--3-----------------8--10--8--15----------------|
G|-9--9-----------9--4-----------------9--9---9--16----------------|
D|-9--10----------9--5-----------------9--10--9--16----------------|
A|-7--10----------7--5-----------------7--10--7--14----------------|
E|----8--------------3--------------------8------------------------|

You can strum this, hit it once and let it ring, or play it with mutes like up top with the bass.

Solo:

E|---------------------------------------------------------------|
B|---------------------------------------------------------------|
G|-12--9--12----12--9-12-------12--9-12--------------------------|
D|------------9----------9-9-------------9-9---7-12--------------|
A|---------------------------------------------------------------|
E|---------------------------------------------------------------|

E|---------------------------------------------------------------|
B|---------------------------------------------------------------|
G|-12--9--12----12--9-12-------12--9-12--------------------------|
D|------------9----------9-9-------------9-9---12p9--------------|
A|---------------------------------------------------------------|
E|---------------------------------------------------------------|


Tabbed by Megan Rose of Lively Ontario, Canada ©

Please leave some feed back, and any questions to my email.
     meg-os@hotmail.com