Fellowship Of Grace - Make Your Praise Resound Text Guitar Tab

Learn the song with the online tablature player
G--------6-6-4-3h-4-------------------6-6-4-3h--------------------|
 D----------------------------------------------4------------------|
 A----2-2-------------------------2-2------------------------------|
 E-----------------------------------------------------------------|

                            OR

 G-----------------------------------------------------------------|
 D---------11-11-9-8h-9------------------11-11-9-8-----------------|
 A-------------------------------------------------9---------------|
 E--7-7-----------------------7-7----------------------------------|

                           H=Hammer on