Fiction Plane - Out Of My Face Text Guitar Tab

Learn the song with the online tablature player
Out Of My Face by Fiction Plane
From the album, Sparks (2010)
Words and music Joe Sumner

Intro and the verses
   C#m                             A/C#
e|-----4-------4-------4-------4-------5-------5-------5-------5-----|
B|---5---5---5---5---5---5---5---5---5---5---5---5---5---5---5---5---|
G|-6-------6-------6-------6-------6-------6-------6-------6-------6-|
D|-------------------------------------------------------------------|
A|-------------------------------------------------------------------|
E|-------------------------------------------------------------------|

   B7                              C#m
e|-----5-------5-------5-------5-------4-------4-------4-------4-----|
B|---4---4---4---4---4---4---4---4---5---5---5---5---5---5---5---5---|
G|-4-------4-------4-------4-------6-------6-------6-------6-------6-|
D|-------------------------------------------------------------------|
A|-------------------------------------------------------------------|
E|-------------------------------------------------------------------|

Chorus
the isnt it obvious and silence gives me strength parts)

   A                               E
e|-------------------------------------------------------------------|
B|-------------------------------------------------------------------|
G|-----2-------2-------2-------2-------------------------------------|
D|---2---2---2---2---2---2---2---2-----2-------2-------2-------2-----
A|-0-------0-------0-------0---------2---2---2---2---2---2---2---2---|
E|---------------------------------0-------0-------0-------0-------0-|

   Abm                              C#m
e|-------------------------------------4-------4-------4-------4-----|
B|-----------------------------------5---5---5---5---5---5---5---5---|
G|-----3-------3-------3-------3---6-------6-------6-------6-------6-|
D|---3---3---3---3---3---3---3---3-----------------------------------|
A|-1-------1-------1-------1-----------------------------------------|
E|-------------------------------------------------------------------|

the solo doesnt have a rhythm part but you could do this

solo
   C#       B          A           F#       C#
e|-------------------------------------------------------------|
B|-------------------------------------------------------------|
G|-------------------------------------------------------------|
D|-66666666-4444444444-222222222------------666666666----------|
A|-44444444-2222222222-000000000--444444444-444444444----------|
E|--------------------------------222222222--------------------|

then it goes to the verse and then the chorus.

I'll be posting the bass and the solo soon.