Finch - Famine Or Disease Text Guitar Tab

Learn song with the online tabulature player
-------------------------------------------------------------------------------
			     FAMINE OR DISEASE
				by Finch
					Finch (2008)
-------------------------------------------------------------------------------
My favourite song on their self-titled EP. To make things easy you could play
with the low string tuned to Db, but this is how the song is played by Finch.

Updated 6th April 2009: Lead corrected, added missing bits.

Tabbed by: Shaunedy
Email: shadow-dirapon@hotmail.co.uk

Tuning: Half-step down (eb Bb Gb Db Ab Eb)

INTRO (repeat)

Rhythm:

eb|----------------------------------------------------------------------|
Bb|----------------------------------------------------------------------|
Gb|----------------------------------------------------------------------|
Db|-2222222222222222--7------6-----------2222222222222222-5555-999999999-|
Ab|-2222222222222222--7------6-----------2222222222222222-5555-999999999-|
Eb|-0000000000000000--5------4-----------0000000000000000-3333-777777777-|

Lead:

eb|----------------0------------------------------------0----------------|
Bb|---------------0-----1-1p0---0-0-0h1p0--------------0-----------------|
Gb|-------------02-----------------------------------02------------------|
Db|----------------------------------------------------------------------|
Ab|----------------------------------------------------------------------|
Eb|----------------------------------------------------------------------|

PRE-CHORUS

Rhythm:

eb|-------------------------------------------------------------------|
Bb|-------------------------------------------------------------------|
Gb|-------------------------------------------------------------------|
Db|-7------6------------10-9-99-999-8-88-888-888-8888-8-88-888-888-88-|
Ab|-7------6------------10-9-99-999-8-88-888-888-8888-8-88-888-888-88-|
Eb|-5------4------------8--7-77-777-6-66-666-666-6666-6-66-666-666-66-|

Lead:

eb|-------------------------------0-1-11-111-000-0000-1-11-111-000-00-|
Bb|---1-1p0---0-0-0h1p0----------0------------------------------------|
Gb|----------------------------02-------------------------------------|
Db|------------------------7-75---------------------------------------|
Ab|-------------------------------------------------------------------|
Eb|-------------------------------------------------------------------|

CHORUS

eb|---------------------------------------------------------------------------|
Bb|---------------------------------------------------------------------------|
Gb|-777----------------------777----------------------------------------------|
Db|-777-2-3333-88888888------777-2-3333-88888888-5555-888-8~------------------|
Ab|-555-2-3333-88888888-[x2]-555-2-3333-88888888-5555-888-8~------------------|
Eb|-----0-1111-66666666----------0-1111-66666666-3333-666-6~------------------|

INTRO x1

CHORUS

BRIDGE PART 1

eb|-------------------------|
Bb|-6--6--6--6--6--6--6--6~-|
Gb|--5--5--5--5--5--5--5----|
Db|---8--8--8--8--8--8--8---|
Ab|-------------------------|
Eb|-------------------------|

BRIDGE PART 2

"Turn it off 'cus it turns you on..."

Rhythm:

eb|---------------------------------------------------------------------------|
Bb|---------------------------------------------------------------------------|
Gb|---------------------------------------------------------------------------|
Db|-55---55----55----55----55-----5555-5555-7777-7777-------------------------|
Ab|-33\2/33\22/33\22/33\22/33\22--5555-5555-7777-7777-------------------------|
Eb|----0----00----00----00----00--3333-3333-5555-5555-------------------------|

The next bit is tricky, I only got one guitar.. however you might be able
to get it yourself. I dunno.

Lead:

eb|-0-3-0-7-3--0-3-0-3-0~---1010-1010-88-88-77-77-88-88-0-3-0-7-3--0-3-0-3-0~-|
Bb|---------------------------------------------------------------------------|
Gb|---------------------------------------------------------------------------|
Db|---------------------------------------------------------------------------|
Ab|---------------------------------------------------------------------------|
Eb|---------------------------------------------------------------------------|

eb|-888877775555-10101010-0-3-0-7-3---------0-1-11-111-000-0000-1-11-111-000-00-|
Bb|---------------------------------1-1p0--0------------------------------------|
Gb|--------------------------------------02-------------------------------------|
Db|-----------------------------------------------------------------------------|
Ab|-----------------------------------------------------------------------------|
Eb|-----------------------------------------------------------------------------|

CHORUS

eb|---------------------------------------------------------------------------|
Bb|---------------------------------------------------------------------------|
Gb|-777----------------------777----------------------------------------------|
Db|-777-2-3333-88888888------777-2-3333-88888888-5555-888-8~-8~-8~------------|
Ab|-555-2-3333-88888888-[x2]-555-2-3333-88888888-5555-888-8~-8~-8~------------|
Eb|-----0-1111-66666666----------0-1111-66666666-3333-666-6~-6~-6~------------|

OUTRO (after "dead, dead, dead..")

Rhythm:

eb|---------------------------------------------------------------------------|
Bb|---------------------------------------------------------------------------|
Gb|---------------------------------------------------------------------------|
Db|-----2-3--5-7~------2-333-5-7~------2-333-5-777~------2-3------------------|
Ab|-555-0-1--3-5~--555-0-111-3-5~--555-0-111-3-555~--555-0-1-3~---------------|
Eb|-333------------333-------------333---------------333-----1~---------------|

Lead:

eb|---------------------------------------------------------------------------|
Bb|-6-66-5-5555-------------555555h6--------------555555----------------------|
Gb|---------------------------------------------------------------------------|
Db|------------5h7-5-7-3-3h5---------5h7-5-7-3-3h5-------5h7-5-7-3--5~--------|
Ab|---------------------------------------------------------------------------|
Eb|---------------------------------------------------------------------------|

Please leave feedback/rate :)


| /  slide up
| \  slide down
| h  hammer-on
| p  pull-off
| ~  let ring
| +  harmonic
| x  Mute note
===============================================================================