Finding Westerly - Sounds Of A Broken Heart Chords

 
No chord
    
Standard guitar tuning:
E
A
D
G
B
E
No capo
Intro/Verse
e--0--0--0--0-|
B--7--0--4--2-|
G--9--2--6--4-|
D--9--2--6--4-|
A--0--0--0--0-|
E--0--0--0--0-|

Chorus

Too blind to know
)
e--0--0--0--0|-0--------|
B--0--2--4--2|-2--------|
G--2--4--6--4|-4--------|
D--2--4--6--4|-4--------|
A--0--0--0--0|-0--------|
E--0--0--0--0|-0--------|

Bridge

why can’t you see
)
e--0--0-|
B--2--4-|
G--4--6-|
D--4--6-|
A--0--0-|
E--0--0-|

All Content on this page is the property of the copyright owner of the original composition.