Fionn Regan - Put A Penny In The Slot Text Guitar Tab

Learn song with the online tabulature player
Capo on the 1st Fret

Verses

   C                               F       Em

e----0---0---0---0---0---0---0---0---0---0---0---0-|
B----1---1---1---1-1-1---1---1---1---1---1---0---0-|
G----0---0---0---0---0-2-0-0-0---0---2---2---0---0-|
D------2-------2---------------2-----3---3---2---2-|
A--3-------3---------------------------3-------2---|
E----------------------------------1-------0-------|

   Am

e----0-----0---0-----------------------------------|
B----1-----1---1---1-------------------------------|
G----2-----2-2-2---2-------------------------------|
D----2-0h2-------2---------------------------------|
A--0-----------------------------------------------|
E--------------------------------------------------|


Intro to chorus from verse(instead of the above)

   Am

e----0-----0---0-----0-----------------------------|
B----1-----1---1-----1-----------------------------|
G----2-----2-2-2-----2-----------------------------|
D----2-0h2-------0h2-------------------------------|
A--0-----------------------------------------------|
E--------------------------------------------------|


Chorus

e----0---0---0---0---0---0---0---0-|
B----1---1---1---1---1---1---1---1-|
G----2---0---0---0---0---0-0-0-2-2-|
D----2---------0---2---3-----------|
A--0---2---3-----------------------|
E----------------------------------|

   C                  F       Em

e-----0-----0---0---0---0---0---0-----0---0---0-|
B-----1-----1---1---1---1---1---0-----0---0---0-|
G-----0-----0-0-0---0---2---2---0-----0-0-0---0-|
D-----2-0h2-2---2-2-2---3-3-3---2-0h2-2-----2---|
A-----3-----3-----------------------------------|
E--3------------------1-------0-----------------|


   F

e----0---0---0-----0---0-----0--|
B----1---1---1-----1---1-----1--|
G----2---2---0-----0---0-----0--|
D----3---3---2-0h2-2---2-0h2-2--|
A------3-------------3----------|
E--1-------3--------------------|

Bridge

   F                               C*              G

e----0---0---0---0---0---0---0---0---0---0---0---0---3---3---3---3----|
B----1---1---1---1---1---1---1---1---1---1---1---1---0---0---0---0----|
G----2---2---2---2---2---2---2---2---0---0-0-0---0---0---0-0-0---0----|
D----3---3---3---3---3---3---3---3---2-2-2---2-2-2---0-0-0---0-0-0----|
A----------------------------------3----------------------------------|
E--1---0---1---0---1---0---1---0-------------------3------------------|

(rpt)


This is not my own work i found it on another website