Fireflight - Star Of The Show Text Guitar Tab

Learn song with the online tabulature player
e-----------6----------------------------------------------|
B-7-----9--------------------------6-7---6-------6h7p6-----|
G---8----------8-------8--------6----------6-----------6---|
D-----8----------9-------9-------------------6-------------|
A-6----------------9-------9-------------4-----4-----------|
E--------------7-----7----------6--------------------------|

e-----------6----------------------------------------------|
B-7-----9--------------------------6-7---6-----------------|
G---8----------8-------8--------6--------------------------|
D-----8----------9-------9---------------------------------|
A-6----------------9-------9-------------4-----------------|
E--------------7-----7----------6--------------------------|

Verse:

Eb  B  Bb  Db

Chorus:

Eb  B  Db  Ab

Play around with the chords