First Aid Kit - Youre Not Coming Home Tonight Text Guitar Tab

Learn song with the online tabulature player
Verse
[-----3----------2---------0-----]
[-----0----------3---------0-----]
[-------X12----------X4-------X4-]
[--------------0-----------------]
[------------------------2-------]
[---3----------------------------]

Repeat that for ever verse

Chorus
[-----2--------0--------3-----]
[-----3--------1--------0-----]
[-------X4-------X4--------X4-]
[---0-------------------------]
[------------3----------------]
[---------------------3-------]