Fitz And The Tantrums - Moneygrabber Text Guitar Tab

Learn song with the online tabulature player
-----------------------------------------------------------------------------
			     MONEYGRABBER - The Fitz and the Tantrums
-----------------------------------------------------------------------------
This is my own interpretation of the music.


Tabbed By :Steve Kunk 
e-mail: 

Tuning:EADG
Bass comes in at 0:08

G|----------------------|
D|--3---5-7---5-3-------|   X5
A|------------------5-7-|
E|----------------------|
    0:51
G|---------------------------|
D|---------------------------| X1
A|--5----7----5----7-7-7-7-7-|
E|---------------------------|
    1:00
G|----------------------|
D|--3---5-7---5-3-------|   X4
A|------------------5-7-|
E|----------------------|
    1:34
G|---------------------------|
D|---------------------------| X1
A|--5----7----5----7-7-7-7-7-|
E|---------------------------|
    1:42
G|----------------------|
D|--3---5-7---5-3-------|   X2
A|------------------5-7-|
E|----------------------|
   1:59
G|-----------------------|
D|-----------------------|  X1
A|--3-3-5--3---3-5---3-5-|
E|-----------------------|
   2:08
G|----------------------------------------------------|
D|----------------------------------------------------|  X1
A|--3-3-5/ 3-3-3-3-3-3-3-3-3-3-3-3-3-3333333355555555-|
E|----------------------------------------------------|
   2:21
G|----------------------|
D|--3---5-7---5-3-------|   play till music fades out
A|------------------5-7-|
E|----------------------|


| /  slide up
| \  slide down
| h  hammer-on
| p  pull-off
| ~  vibrato
| +  harmonic
| x  Mute note
=============================================================================