Fixkes - Kvraagetaan Text Guitar Tab

Learn song with the online tabulature player
-----------------------------------------------------------------------------
                             kvraagetaan  - Fixkes
-----------------------------------------------------------------------------
Tabbed by:Den Alec


vers
e|------5------5--------7-------3/5---|
B|------7------5--------7-------3/5---|
G|------7------6--------7-------4/6---|
D|------7------7--------9-------5/7---|
A|---5--5-4----7--------9-------5/7---|
E|----------5--5--h6-7--7--5-3--3/5---|
hoeveel keer dat je de akkoorden moet spelen staat er (natuurlijk) niet bij 

chorus
e|---3--3-3-3--3-3--3-3-3-3/5-5-5-5-5---|
B|---3--3-3-3--3-3--3-3-3-3/5-5-5-5-5---|
G|---4--4-4-4--4-4--4-4-4-4/6-6-6-6-6---|
D|---5--5-5-5--5-5--3-5-5-5/7-7-7-7-7---|
A|---5--5-5-5--5-5--5-5-5-5/7-7-7-7-7---|
E|---3--3-3-3--3-3--3-3-3-3/5-5-5-5-5---|
geniet ervan !!!

solo1 (piano)
|--------------------------------------------------|
|---8-7----8--8-7----8--8-7------5---5---7-----8---|
|-------7---------7---------7--7---7---7---7-------|
|--------------------------------------------------|
|--------------------------------------------------|
|--------------------------------------------------|

solo2 (piano)
|--------------------------------------------------------|
|---8-7----8--8-7----8--8-7------5-----5-----8-8-8-7-----|
|-------7---------7---------7--7---7-7---7-7---------7---|
|--------------------------------------------------------|
|--------------------------------------------------------|
|--------------------------------------------------------|

|------------------------------------------|
|---8--8-7----8--8-7------5-----5------8---|
|----------7---------7--7---7-7---7--------|
|------------------------------------------|
|------------------------------------------|
|------------------------------------------|

de derde solo is met piano akkoorden dus die doe ik niet
geef aub sterren en comentaar

| /  slide up
| \  slide down
| h  hammer-on
| p  pull-off
| ~  vibrato
| +  harmonic
| x  Mute note
=============================================================================
www.fixkes.be