Flame - Joyful Noise Text Guitar Tab

Learn song with the online tabulature player
Artist: Flame
Song: Joyful Noise
Album: Our World Redeemed

/ = Slide up
~ = Tremolo

Here's the little synth part at the beginning repeated throughout:
e--20-20-20-20-19-19-19-17-----|
G------------------------------|
G------------------------------|
D------------------------------|
A------------------------------|
E------------------------------|

1st Pre-Chorus (repeat as necessary):
                                                                  (last time)
e-------------------------------------------------------------------|------|
B-------------------------------------------------------------------|------|
G----------------------------------5-5-5-5-5-5-5-5-5-5-5-5--5/10----|--10~-|
D-7-7-7-7-7-7-7-7-7-7-7-7-7-7-7-7--5-5-5-5-5-5-5-5-5-5-5-5--5/10----|------|
A-7-7-7-7-7-7-7-7-7-7-7-7-7-7-7-7--3-3-3-3-3-3-3-3-3-3-3-3--3/-8----|------|
E-5-5-5-5-5-5-5-5-5-5-5-5-5-5-5-5-----------------------------------|------|

1st Chorus (repeat as necessary):

e-------------------------------------------------------------------|
B-------------------------------------------------------------------|
G----------------------------------5-5-5-5-5-5-5-5-5-5-5-5--5/10----|
D-7-7-7-7-7-7-7-7-7-7-7-7-7-7-7-7--5-5-5-5-5-5-5-5-5-5-5-5--5/10----|
A-7-7-7-7-7-7-7-7-7-7-7-7-7-7-7-7--3-3-3-3-3-3-3-3-3-3-3-3--3/-8----|
E-5-5-5-5-5-5-5-5-5-5-5-5-5-5-5-5-----------------------------------|

2nd Verse

... He paid the sin price being beat by Roman guards ...
e------------------------12-----------------------------------------|
B-------------------------------------------------------------------|
G-------------------------------------------------------------------|
D-------------------------------------------------------------------|
A-------------------------------------------------------------------|
E-------------------------------------------------------------------|

... Now me and my boys need to be in a psych ward
e---------------------12--------------------------------------------|
B-------------------------------------------------------------------|
G-------------------------------------------------------------------|
D-------------------------------------------------------------------|
A-------------------------------------------------------------------|
E-------------------------------------------------------------------|

Now in the Book of Life, our names have been written down 
We're casting our crowns before His feet on the ground
It's such a holy melody and a heavenly sound
Hearing holy holy holy coming out of the mouth
Of the four living creatures by His throne all around
Can you picture the scene this this is how it's going down
You just need a little faith and a new set of eyes and a telescopic lens to look in and see God 

(For all the above lines play this riff 4x)
e------------------17-------------------------------------15--13-12-|
B-------------------------------------------------------------------|
G-------------------------------------------------------------------|
D-------------------------------------------------------------------|
A-------------------------------------------------------------------|
E-------------------------------------------------------------------|


Play 2nd Chorus (same as 1st)

3rd Verse:

 ...Can take a sinner, atheist sinner to God conscience...
e-12----------------------------------------------------------------|
B-------------------------------------------------------------------|
G-------------------------------------------------------------------|
D-------------------------------------------------------------------|
A-------------------------------------------------------------------|
E-------------------------------------------------------------------|

 ...The same God that came through a fetus as Jesus ...       
e-12----------------------------------------------------------------|
B-------------------------------------------------------------------|
G-------------------------------------------------------------------|
D-------------------------------------------------------------------|
A-------------------------------------------------------------------|
E-------------------------------------------------------------------|

...Got believers singing 
e-----------------------5/17-17---|
B---------------------------------|
G---------------------------------|
D---------------------------------|
A---------------------------------|
E---------------------------------|

3rd Chorus (same as first two but this riff is played over it):
e------------------17-------------------------------------15--13-12-|
B-------------------------------------------------------------------|
G-------------------------------------------------------------------|
D-------------------------------------------------------------------|
A-------------------------------------------------------------------|
E-------------------------------------------------------------------|