Flatfoot 56 - Brotherhood Text Guitar Tab

Learn song with the online tabulature player
Hi, I would like to say that there isn't enough tabs on Flatfoot 56 and I'm posting some
to make it easier for you guys/girls to play awesome songs!
This is an awesome band they're pretty underated, they have the best live shows ever and
a really good Christian Punk band. If you seek something any Christian Punk bands,
guys are a good start. Did I mention they have bagpipes and mandolins? That makes them a 
Celtic Punk band (even though they're from Chicago). =P

The chords to the song are in the same key, but alas not the right chords. Here you go
I hope you enjoy.

r=10

Intro is just bagpipes.

Verse & Chorus (you play this in the entire song):

     B5                E5                B5
e|------------------------------------------------------------------------|
B|------------------------------------------------------------------------|
G|---------------------9-999-99-9-999-99-------------------9-r------------|
D|---9-999-99-9-999-99-9-999-99-9-999-99-9-999-99-9-999-99-9-r-9-999-99---|
A|---9-999-99-9-999-99-7-777-77-7-777-77-9-999-99-9-999-99-7-8-9-999-99---|
E|---7-777-77-7-777-77-------------------7-777-77-7-777-77-----7-777-77---|

Bridge:

e|-----------------------------------------------------|
B|-----------------------------------------------------|
G|----9-99-99-9x---------------9-99-99-9x--------------| Reapeat Bridge x3
D|----9-99-99-9x----9-99-99-9--9-99-99-9x----9-99-99-9-|
A|----7-77-77-7x----9-99-99-9--7-77-77-7x----9-77-77-7-|
E|------------------7-77-77-7----------------7-77-77-7-|


That's about it, easy and fun to play. Enjoi!