Fleet Foxes - Grown Ocean Chords

 
         
         
         
         
         
1
3
4
2
1
1
5 fr
         
         
         
         
         
X
4
3
1
2
1
3 fr
         
         
         
         
         
X
X
1
2
4
3
         
         
         
         
         
X
X
3
2
1
1
8 fr
         
         
         
         
         
X
1
3
3
3
1
10 fr
         
         
         
         
         
4
3
1
1
1
X

10 fr
         
         
         
         
         
3
2
1
1
1
4

B6

variations
         
         
         
         
         
X
1
3
3
3
3
8 fr
         
         
         
         
         
X
X
1
3
1
4
         
         
         
         
         
1
3
1
1
1
1
3 fr
         
         
         
         
         
X
X
1
4
2
3
8 fr
         
         
         
         
         
X
1
X
2
4
3
         
         
         
         
         
1
3
1
1
4
1
8 fr
         
         
         
         
         
X
1
3
1
2
1
6 fr
         
         
         
         
         
X
2
1
3
1
4

8 fr
         
         
         
         
         
X
1
3
1
2
X
8 fr
         
         
         
         
         
X
1
3
1
2
4
No chord
    
Standard guitar tuning:
E
A
D
G
B
E
Capo on 3 fret
    F   B6  Fm7
e|--0----2----4----|
B|--3----3----5----|
G|--0----1----3----|
D|--0----0----0----|
A|--0----2----4----|
E|--0----0----0----|
For the intro, mess with the F chord with a single finger by making these shapes:
e|-0---0---0---0---|
B|-3---2---0---2---|
G|-0---0---0---3---|
D|-0---0---0---0---|
A|-0---0---0---0---|
E|-0---0---0---0---|
He usually does this between the verses, as well. B6In that dream I'm as old as the mountains Still as starlight reflected in fountains FThen B6Children grown on the edge of the ocean Bred like jewelry kept with devotion FIn that dream moving slow through the morning B6time
 Bamm          B6
e|-2----2-2----2--|
B|-3----3-3----3--|
G|-1----0-0h1--0--|
D|-0----0-0----0--|
A|-2----0-0h2--0--|
E|-0----0-0----0--|
B6You would come to me then without answers Lick my wounds and remove my demands for Fnow B6Eucalyptus and orange trees are blooming In that dream there's no darkness a-loomin' FIn that dream moving slow through the morningB6 time B6In that dream I could Fm7hardly contain it! B6All my life I will Fm7wait to attain it B6Iiiiiiiiitttt! F -----> to tab below: Oooooooh!
e|-0-0-0-0-0-0-0-0-|-0-0-0-0-0-0-0-0-|-0-0-0-0-0-0-0-0-|-0-0-0-0-0-0-0-0-|
B|-3-3-3-3-3-3-3-3-|-2-2-2-2-2-2-2-2-|-0-0-0-0-2-2-2-2-|-0-0-0-0-0-0-0-0-|
G|-0-0-0-0-0-0-0-0-|-0-0-0-0-3-3-3-3-|-1-1-1-1-1-1-1-1-|-1-1-1-1-3-3-3-3-|
D|-0-0-0-0-0-0-0-0-|-0-0-0-0-0-0-0-0-|-0-0-0-0-0-0-0-0-|-0-0-0-0-0-0-0-0-|
A|-0-0-0-0-0-0-0-0-|-0-0-0-0-0-0-0-0-|-2-2-2-2-2-2-2-2-|-2-2-2-2-2-2-2-2-|
E|-0-0-0-0-0-0-0-0-|-0-0-0-0-0-0-0-0-|-----------------|-----------------|
And B6I know someday the smoke will all burn off All these voices I'll someday have turned off Fthen And B6I will see you someday when I've woken I'll be so happy just to have spoken FI'll have so much to tell you about it

B6

Ahhhhhhhhhhhhhhhh
B6In that dream I could Fm7hardly contain it! B6All my life I will Fm7wait to attain it B6Iiiiiiiiitttt! OooooooFh! Don't betray me I will wake one day Don't delay me Wide-eyed leaver Always going

All Content on this page is the property of the copyright owner of the original composition.