Flight Of The Conchords - Kissing Text Guitar Tab

Learn the song with the online tablature player
E||--------------------------|--------------------------|
B||--------------------------|--------------------------|
G||--------------------------|--------------------------|
D||--------------------------|--2--2--2--2--2--2--2--2--|
A||--2--2--2--2--2--2--2--2--|--3--3--3--3--3--3--3--3--|
E||--3--3--3--3--3--3--3--3--|--------------------------|

--------------------------|--------------------------|
--------------------------|--------------------------|
--------------------------|--------------------------|
--4--4--4--4--4--4--4--4--|--4--4--4--4--4--4--4--4--|
--5--5--5--5--5--5--5--5--|--5--5--5--5--5--5--5--5--|
--------------------------|--------------------------|

--------------------------|--------------------------|
--------------------------|--------------------------|
--------------------------|--------------------------|
--------------------------|--2--2--2--2--2--2--2--2--|
--2--2--2--2--2--2--2--2--|--3--3--3--3--3--3--3--3--|
--3--3--3--3--3--3--3--3--|--------------------------|

--------------------------|--------------------------|
--------------------------|--------------------------|
--------------------------|--------------------------|
--4--4--4--4--4--4--4--4--|--4--4--4--4--4--4--4--4--|
--5--5--5--5--5--5--5--5--|--5--5--5--5--5--5--5--5--|
--------------------------|--------------------------|

--------------------------|--------------------------|
--------------------------|--------------------------|
--------------------------|--------------------------|
--------------------------|--2--2--2--2--2--2--2--2--|
--2--2--2--2--2--2--2--2--|--3--3--3--3--3--3--3--3--|
--3--3--3--3--3--3--3--3--|--------------------------|

--------------------------|--------------------------|
--------------------------|--------------------------|
--------------------------|--------------------------|
--4--4--4--4--4--4--4--4--|--4--4--4--4--4--4--4--4--|
--5--5--5--5--5--5--5--5--|--5--5--5--5--5--5--5--5--|
--------------------------|--------------------------|

--------------------------|--------------------------|
--------------------------|--------------------------|
--------------------------|--------------------------|
--------------------------|--2--2--2--2--2--2--2--2--|
--2--2--2--2--2--2--2--2--|--3--3--3--3--3--3--3--3--|
--3--3--3--3--3--3--3--3--|--------------------------|

--------------------------|--------------------------|
--------------------------|--------------------------|
--------------------------|--------------------------|
--4--4--4--4--4--4--4--4--|--4--4--4--4--4--4--4--4--|
--5--5--5--5--5--5--5--5--|--5--5--5--5--5--5--5--5--|
--------------------------|--------------------------|

--------------3-----------|--------------3-----------|
--------------0-----------|--------------0-----------|
--0--0--0--0--0--0--0--0--|--0--0--0--0--0--0--0--0--|
--2--2--2--2--2--2--2--2--|--2--2--2--2--2--2--2--2--|
--------------------------|--------------------------|
--------------------------|--------------------------|

--------------2-----------|--5--------2--------2--2--|
--------------3-----------|--3--------3--------3--3--|
--0--0--0--0--0--0--0--0--|--0--0--0--0--0--0--0--0--|
--0--0--0--0--0--0--0--0--|--0--0--0--0--0--0--0--0--|
--------------------------|--------------------------|
--------------------------|--------------------------|

--0--0--0--0--0--0--0--0--|--0--0--0--0--0--0--0--0--|
--1--1--1--1--1--1--1--1--|--1--1--1--1--1--1--1--1--|
--------------0-----------|--------------------------|
--------------------------|--------------------------|
--------------------------|--------------------------|
--------------------------|--------------------------|

--------------2-----------|--------------2-----------|
--------------0-----------|--------------0-----------|
--------------0-----------|--------------0-----------|
--4--4--4--4-----4--4--4--|--4--4--4--4-----4--4--4--|
--------------------------|--------------------------|
--------------------------|--------------------------|

-----0--------0--------0--|--------------------0----|--------------------------|
-----2--------2--------2--|--------------------2----|--------------------------|
--2--2--2--2--2--2--2--2--|--2--2--2--2--2--2--2----|--------4--------4--------|
--------------------------|-------------------------|-----5--------5--------5--|
--------------------------|-------------------------|--5--------5--------5-----|
--------------------------|-------------------------|--------------------------|

--------------------------|--------------------------|
--------------------------|--------------------------|
--------5-----------5-----|--------5--------5--------|
-----5--------5--------5--|-----4--------4--------4--|
--7--------7-----7--------|--5--------5--------5-----|
--------------------------|--------------------------|

--------------------------|--------------------------|
--------------------------|--------------------------|
--------5--------5--------|--------------------------|
-----4--------4--------4--|--------------------------|
--5--------5--------5-----|--2--2--2--2--2--2--2--2--|
--------------------------|--3--3--3--3--3--3--3--3--|

--------------------------|--------------------------|
--------------------------|--------------------------|
--------------------------|--------------------------|
--2--2--2--2--2--2--2--2--|--4--4--4--4--4--4--4--4--|
--3--3--3--3--3--3--3--3--|--5--5--5--5--5--5--5--5--|
--------------------------|--------------------------|

--------------------------|--------------------------|
--------------------------|--------------------------|
--------------------------|--------4--------4--------|
--4--4--4--4--4--4--4--4--|-----5--------5--------5--|
--5--5--5--5--5--5--5--5--|--5--------5--------5-----|
--------------------------|--------------------------|

--------------------------|--3----------------|------------------||
--------------------------|--0----------------|------------------||
--------5-----------5-----|--0----------------|------------------||
-----5--------5--------5--|--0----------------|------------------||
--7--------7-----7--------|--2----------------|------------------||
--------------------------|--3----------------|------------------||