Flight Of The Conchords - You Dont Have To Be A Prostitute Text Guitar Tab

Learn song with the online tabulature player
-------------------------------------------------------------------------------
                             You Don't Have to be a Prostitute - Flight of the Conchords
-------------------------------------------------------------------------------
Tabbed by: John
Email: farag.john@Gmail.com

Tuning: EADGBE

                                Intro/Verse

     Am                            Dm                    E7
e|----0-0----0-0-----0-0------------1-1-----1-1-----1-1--0-0-0---------|
B|----1-1----1-1-----1-1------------3-3-----3-3-----3-3--3-3-3---------|
G|----2-2----2-2-----2-2------------2-2-----2-2-----2-2--1-1-1---------|
D|--------------------------------0----------------------0-0-0---------|   
A|-0------0-----------------0-2-3---------3-------2------2-2-2---------|
E|----------4----4-3----3-2------------------------------0-0-0---------|

                   Chorus
      C         G         F         G
e|---------------------------------------------|
B|----5-5--5-5--3-3--3-3--1-1--1-1--3-3--3-3---|
G|----5-5--5-5--4-4--4-4--2-2--2-2--4-4--4-4---|
D|----5-5--5-5--5-5--5-5--3-3--3-3--5-5--5-5---|    
A|----3-3--3-3--5-5--5-5--3-3--3-3--5-5--5-5---|
E|--------------3-3--3-3--1-1--1-1--3-3--3-3---|

                            Post-Chorus
      C              G             F             G
e|----8--8---8--8----10-10--10-10--8--8---8--8---10-10--10-10-------|
B|----8--8---8--8----12-10--10-10--10-10--10-10--12-12--12-12-------|
G|----9--9---9--9----12-12--12-12--10-10--10-10--12-12--12-12-------|
D|----10-10--10-10---12-12--12-12--10-10--10-10--12-12--12-12-------|   
A|----10-10--10-10---10-10--10-10--8--8---8--8---10-10--10-10-------|
E|----8--8---8--8---------------------------------------------------|

Song Order:

Intro
Verse x3
Chorus x4
Post-Chorus x4
Verse x3
Chorus x4



| /  slide up
| \  slide down
| h  hammer-on
| p  pull-off
| ~  vibrato
| +  harmonic
| x  Mute note
===============================================================================