Flipsyde - Happy Birthday Text Guitar Tab

Learn song with the online tabulature player
This song is originally played on a piano, so the tones were extremely sharp and low at
same time. The best way to get this is by using a guitar with a long fretboard. The song
best played using two guitars since its hard to get sharp and low tones fast using the 
(unlike a piano where they use both hands).

method 1:
you can use two guitars as shown in the following method:
(note:if you want to use one guitar use method 2)
|------------------------------------------------19---|
|------17-20-19----19-17-20-----19-20-22----21-22-----|
|-----------------------------------------------------|
|-----------------------------------------------------|
|-----------------------------------------------------|
|-----------------------------------------------------|
|
|-----------------------------------------------------|
|----------------------------8------------------------|
|---9------------7-----------------------5------------|
|-----------------------------------------------------|
|-----------------------------------------------------|
|-----------------------------------------------------|


|---------17-19----------------------------------19------|
|------17-----------19-17-20-----19-20-22----21-22-------|
|--------------------------------------------------------|
|--------------------------------------------------------|
|--------------------------------------------------------|
|--------------------------------------------------------|
|
|-----------------------------------------------------|
|-----------------------------8-----------------------|
|---9------------7-------------------------5----------|
|-----------------------------------------------------|
|-----------------------------------------------------|
|-----------------------------------------------------|


method 1:
one guitar, its a little bit trickier but you can handle:
|------------------------------------------------19------|
|------17-20-19---19-17-20-----19-20-22----21-22---------|
|--------------------------------------------------------|
|--------------------------17----------------------------|
|---19---------17-----------------------15---------------|
|--------------------------------------------------------|

|---------19-17----------------------------------19------|
|-----17----------19-17-20-----19-20-22----21-22---------|
|--------------------------------------------------------|
|--------------------------17----------------------------|
|---19---------17----------------------15----------------|
|--------------------------------------------------------|