Flipsyde - When It Was Good Text Guitar Tab

Learn song with the online tabulature player
This is an easy song to play, except the fast part which may be hard for beginners.

/ = slide up
\ = slide down
h = hammer on
p = pull off

Intro:

e|----13----16-----18-----16|
b|-13----13-----13-----13---|
g|--------------------------|
D|--------------------------|
A|--------------------------|
E|--------------------------|

Let the first '13' on b string ring
e|-11-11-13-15-----16-----15|
b|--------------13-----13---|
g|--------------------------|
D|--------------------------|
A|--------------------------|
E|--------------------------|

Let the two last '14' on b string ring
e|----------13-----16-----15|
b|-14-14-16-----14-----14---|
g|--------------------------|
D|--------------------------|
A|--------------------------|
E|--------------------------|

e|-8h9p8-----------------------------|
b|-------11-9-8h9-6/5----------------|
g|--------------------5--------------|
D|-----------------------5\6-5-------|
A|------------------------------3----|
E|---------------------------------3-|


After they sang "Who would’ve known this path we’d take" you tremolo pick this note:
e|-13-----------------------|
b|--------------------------|
g|--------------------------|
D|--------------------------|
A|--------------------------|
E|--------------------------|

At last chorus, the intro comes in again. That's all guitar parts for this song.