Flyleaf - Believe In Dreams Text Guitar Tab

Learn song with the online tabulature player
MUSIC: Flyleaf - Believe in dreams (with rythm)
tabbed by Dion Ross

This is my first tab but I'm quite sure it's accurate, just the way it's played.
I've tabbed only intro in hope that someone will finish it up. Indeed I wasn't able to 
get the rest of the song by ear
so I decided to post what I did, I hope it helps...

anything email-me: knight_doomsday@hotmail.com

R|-D---D---U-U-D--D--D-U-D---U-D---U--U-D--D--D-U-D---D---D--D-U---D--D-U-D-|

E|-2---2---2-2----2--2-2-3---3-3---3--3----3--3-3-3---3---3--3-3---3--3-3-2-|
B|-3---3---3-3-3--3--3-3-3---3-3---3--3----3--3-3-3---3---3--3-3---3--3-3-3-|
G|-2---2---2-2-2--2--2-2-0---0-0---0--0-0--0--0-0-0---0---0--0-0---0--0-0-2-|
D|-0---0-------0--0----0-2---2-2--------2--2--2-2-0---0---0--0-0---0--0-0-0-|
A|-----------------------2---2-2--------2--2--2-2-2---2---2--2-2---2--2-2---|
E|------------------------------------------------3---3---3--3-3---3--3-3---|

R|-D--D-U---U-D-U-D---D-U-D---U-D--U--U-D---D--D-U-D--D--D--D-U--D--D-U-D---|

E|-2--2-2---2-2-2-2---2-2-3---3-3--3--3-----3--3-3-3--3--3--3-3--3--3-3-2---|
B|-3--3-3---3-3-3-3---3-3-3---3-3--3--3-----3--3-3-3--3--3--3-3--3--3-3-3---|
G|-2--2-2---2-2-2-2---2-2-0---0-0--0--0-0---0--0-0-0--0--0--0-0--0--0-0-2---|
D|-0--0-------------------2---2-2--2--2-2---2--2-2-0--0--0--0-0--0--0-0-0---|
A|------------------------2---2-2--2--2-2---2--2-2-2--2--2--2-2--2--2-2-----|
E|-------------------------------------------------3--3--3--3-3--3--3-3-----|


WHERE R=RYTHM->                         U=UPSTROKE              D=DOWNSTROKE