Flyleaf - Red Sam Acoustic Text Guitar Tab

Learn song with the online tabulature player
Ok, I've tried to do this the best I can. I think I have all the parts somewhat correct. 
me know if something is off or not, or if you sense a better chord in certain parts or 
I would tab all the hammer-ons, pull-offs, etc, but..I'll leave that to YOU.

Standard Tuning

Intro
e|--7-7-------------------------7-7-------------------------|
B|-------6-6--7-7-------7--7-7-------6-6--7-7-------7--7-7--|
G|-----------------7-7-------------------------7-7----------|
D|----------------------------------------------------------|
A|----------------------------------------------------------|
E|----------------------------------------------------------|

e|--7-7-------------------------7-7-------------------------|
B|-------6-6--7-7-------7--7-7-------6-6--7-7-------7-7-7---|
G|-----------------7-7-------------------------7-7----------|
D|----------------------------------------------------------|
A|----------------------------------------------------------|
E|----------------------------------------------------------|

Pre-Verse /Chorus
e|9-------5-----9------5-----9------5-----9------5----------|
B|12------8-----12-----8-----12-----8-----12-----8----------|
G|11------7-----11-----7-----11-----7-----11-----7----------|x2
D|11------7-----11-----7-----11-----7-----11-----7----------|
A|9-------5-----9------5-----9------5-----9------5----------|
E|9-------5-----9------5-----9------5-----9------5----------|

*First Verse*

Guitar 1 (Guitar whose sound is panned to the right ear phone.)
e|----------------------------------------------------------|
B|----------------------------------------------------------|
G|11--11-12-11-12-11---11\----11------11-------------11--14-|
D|--------------------------------12------12--9--12---------|
A|----------------------------------------------------------|
E|----------------------------------------------------------|

Guitar 1 (Continued)
e|----------------------------------------------------------|
B|----------------------------------------------------------|
G|--11------11--14--11------11--14--11--------------------14|
D|------12--------------12--------------12--9--12--9--12----|
A|----------------------------------------------------------|
E|----------------------------------------------------------|

Or you can play..

Guitar 2 (Guitar whose sound is panned to the left ear phone.)
e|-----------------------------------------------------------|
B|-------10-10---------10-----------------10-10--------10----|
G|11--9-----------7--7----9-7--6-11-11--9----------7-7----9--|
D|--------------7--------------------------------7----------7|
A|-----------------------------------------------------------|
E|-----------------------------------------------------------|

Guitar 2 (Continued)
e|-----------------------------------------------------------|
B|-----------10-10----------10-----------------10-10---------|
G|6-11-11--9----------7-7-7----9-7--6-11-11--9----------7-7--|
D|------------------7---------------------------------7------|
A|-----------------------------------------------------------|
E|-----------------------------------------------------------|

Pre-Verse/Chorus
e|9-------5-----9------5-----9------5-----9------5----------|
B|12------8-----12-----8-----12-----8-----12-----8----------|
G|11------7-----11-----7-----11-----7-----11-----7----------|
D|11------7-----11-----7-----11-----7-----11-----7----------|
A|9-------5-----9------5-----9------5-----9------5----------|
E|9-------5-----9------5-----9------5-----9------5----------|

Chorus
e|2------3------3------2------3------3------------|
B|2------3------3------2------3------3------------|
G|4------5------0------4------5------0------------| x2
D|4------5------0------4------5------0------------|
A|2------3------2------2------3------2------------|
E|2------3------3------2------3------3------------|


Pre-Verse /Chorus
e|9-------5-----9------5-----9------5-----9------5----------|
B|12------8-----12-----8-----12-----8-----12-----8----------|
G|11------7-----11-----7-----11-----7-----11-----7----------|
D|11------7-----11-----7-----11-----7-----11-----7----------|
A|9-------5-----9------5-----9------5-----9------5----------|
E|9-------5-----9------5-----9------5-----9------5----------|

*Second Verse*

Guitar 1
e|----------------------------------------------------------|
B|----------------------------------------------------------|
G|11--11-12-11-12-11---11\----11------11-------------11--14-|
D|--------------------------------12------12--9--12---------|
A|----------------------------------------------------------|
E|----------------------------------------------------------|

Guitar 1 (Continued)
e|----------------------------------------------------------|
B|----------------------------------------------------------|
G|--11------11--14--11------11--14--11--------------------14|
D|------12--------------12--------------12--9--12--9--12----|
A|----------------------------------------------------------|
E|----------------------------------------------------------|

Or..

Guitar 2
e|-----------------------------------------------------------|
B|-------10-10-------10------------------10-10--------10-----|
G|11--9-----------7------9-7--6-11-11-11-9----------7-7----9-|
D|--------------7-------------------------------7----------7-|
A|-----------------------------------------------------------|
E|-----------------------------------------------------------|

Guitar 2 (Continued)
e|--------------------------------------------------------------------|
B|-----------10-10---------10-----------------10-10---------10-7-10---|
G|6-11-11--9----------7--7----9-7--6-11-11--9----------7-7-----------9|
D|------------------7---------------------------------7---------------|
A|--------------------------------------------------------------------|
E|--------------------------------------------------------------------|

Pre-Verse/Chorus
e|9-------5-----9------5-----9------5-----9------5----------|
B|12------8-----12-----8-----12-----8-----12-----8----------|
G|11------7-----11-----7-----11-----7-----11-----7----------|
D|11------7-----11-----7-----11-----7-----11-----7----------|
A|9-------5-----9------5-----9------5-----9------5----------|
E|9-------5-----9------5-----9------5-----9------5----------|

Chorus
e|2------3------3------2------3------3------------|
B|2------3------3------2------3------3------------|
G|4------5------0------4------5------0------------| x2
D|4------5------0------4------5------0------------|
A|2------3------2------2------3------2------------|
E|2------3------3------2------3------3------------|

Bridge

Guitar 1
e|------------------------------------------------------|
B|------------------------------------------------------|
G|11--11--11-11-11-12--11-12--12/14--14-14--12--11-12-11|x 2
D|------------------------------------------------------|
A|------------------------------------------------------|
E|------------------------------------------------------|

Guitar 1 (Continued)
e|-----------------------------------------------------------------------|
B|-----------------------------------------------------------------------|
G|11--11--11-11-11--11--11--11--11-11-11-11-11-11-11-11/14--14--14-14-14-|
D|-----------------------------------------------------------------------|
A|-----------------------------------------------------------------------|
E|-----------------------------------------------------------------------|

Guitar 1 (Continued)
e|-----------------------------------------------------------------------|
B|-----------------------------------------------------------------------|
G|11--11--11-11-11-12--11-12--12/14--14-14-*keep strumming until pre-v/c*|x 2
D|-----------------------------------------------------------------------|
A|-----------------------------------------------------------------------|
E|-----------------------------------------------------------------------|

Guitar 2 (Chords in the background)
e|------------------------------------------------|
B|------------------------------------------------|
G|11--11--11-11--7-7--7--9-9--9--11--11-----------|
D|11--11--11-11--7-7--7--9-9--9--11--11-----------| x4
A|9---9---9--9---5-5--5--7-7--7--9---9------------|
E|------------------------------------------------|

"And I worship..And I worship.."

Pre-Verse/Chorus
e|9-------5-----9------5-----9------5-----9------5----------|
B|12------8-----12-----8-----12-----8-----12-----8----------|
G|11------7-----11-----7-----11-----7-----11-----7----------|x2
D|11------7-----11-----7-----11-----7-----11-----7----------|
A|9-------5-----9------5-----9------5-----9------5----------|
E|9-------5-----9------5-----9------5-----9------5----------|

Chorus
e|2------3------3------2------3------3------------|
B|2------3------3------2------3------3------------|
G|4------5------0------4------5------0------------| x2
D|4------5------0------4------5------0------------|
A|2------3------2------2------3------2------------|
E|2------3------3------2------3------3------------|

End
e|2
B|2
G|4
D|4
A|2
E|2