Flyleaf - Red Sam Text Guitar Tab

Learn song with the online tabulature player
RED SAM by Flyleaf

Tabbed by: silver_and_cold
Email: deranged_smiley_faces@hotmail.com
Tuning: Standard


INTRO
e|--22----------------------|
B|-----22-33----3~-33-------|
G|-----------22-------------|
D|--------------------------|
A|--------------------------|
D|--------------------------|


e|-------------------------------------------------|
B|-------------------------------------------------|
G|--11--11---7-7---11--11---7-7---7-7-7-7----------|
D|--11--11---7-7---11--11---7-7---7-7-7-7----------|
A|---9---9---5-5----9---9---5-5---5-5-5-5----------|
D|---9---9---5-5----9---9---5-5---5-5-5-5----------|


VERSE
Guitar 1: (listen to the song for timing)
e|--------------------------------------------------------------------------|
B|------------------------------0-----10------10------10-----0-----0-/10~---|
G|---11~--11b-11//--11----11--------11--11--11--11--11--11-------11---------|
D|---------------------12----12---12------12------12------12---12-----------|
A|--------------------------------------------------------------------------|
D|--------------------------------------------------------------------------|


Guitar 2: (listen for timing) x4
e|---------------------10---------------|
B|---------10~--------------10----------|
G|---11~--9--------------11----9~-------|
D|-12-------------12~-------------------|
A|--------------12----------------------|
D|--------------------------------------|


PRE CHORUS:

e|-------------------------------------------------|
B|-------------------------------------------------|
G|--11--11---7-7---11--11---7-7---7-7-7-7----------|
D|--11--11---7-7---11--11---7-7---7-7-7-7----------|
A|---9---9---5-5----9---9---5-5---5-5-5-5----------|
D|---9---9---5-5----9---9---5-5---5-5-5-5----------|



CHORUS:
e|---------------------------------------------------|
B|---------------------------------------------------|
G|--11-11-11-11---12-12-12-12-12--7-7-7-777----------|
D|--9--9--9--9----0--0--0--0--0---5-5-5-555----------|
A|--9--9--9--9----0--0--0--0--0---5-5-5-555----------|
D|--9--9--9--9----0--0--0--0--0---5-5-5-555----------|


(repeat intro, then verse, then pre-chorus, and chorus)


BRIDGE:
Guitar 1: (figure strumming pattern out..)
e|---------------------------------------|
B|---------------------------------------|
G|--11---7-9-7---------------------------|
D|--11---7-9-7---------------------------|
A|---9---5-7-5---------------------------|
D|---------------------------------------|
                "..my hands are open.."
                "..and you are filling them.."
                "..hands in the air.."


I'm still trying to tab the other Bridge part..


Then:
e|-------------------------------------------------|
B|-------------------------------------------------|
G|--11--11---7-7---11--11---7-7---7-7-7-7----------|
D|--11--11---7-7---11--11---7-7---7-7-7-7----------|
A|---9---9---5-5----9---9---5-5---5-5-5-5----------|
D|---9---9---5-5----9---9---5-5---5-5-5-5----------|


Play Chorus


End With:

e|--------|
B|--------|
G|--------|
D|--9~----|
A|--9~----|
D|--9~----|