Fm Static - Nice Piece Of Art Text Guitar Tab

Learn song with the online tabulature player
Song Title: Nice Piece Of Art
Artist: Fm Static


Standar tuning
Tabbed by : Nikko Gonzales
nikkowgonzales@yahoo.com


Get this right i am sure of this!!!

Verse,intro, chorus, bridge
F - C - D - Bb


main riff

e|-----------------------------------------------|
B|-----------------------------------------10----|
G|------10---------10----------10-------10----10-|
D|---10----10---10----10----10----10--8----------|
A|-8---------------------------------------------|
E|------------8----------10----------------------|


Pre chorus
"and every time i wonder"

e|---------------|
B|---------10----|
G|------10----10-|
D|----8----------|  repeat as needed
A|---------------|
E|---------------|


then

A# - C

Then chorus, and so on...

thx rate my tab