Fm Static - Six Candles Text Guitar Tab

Learn song with the online tabulature player
Six Candles By Fm Static
tabbed by Ferdz Tobats
email:tobatsdrive@yahoo.com
intro:
e|------0-------0---------0-------0---|
B|----3---3---3---3-----3---3---3-----|
G|--2-------2-----------------2-------|
D|------------------------------------|
A|------------------------------------|
E|------------------------------------|

e|------0-------0---------2--3-2---0--|
B|----3---3---3---3-----3--------3----|
G|--2-------2--------0----------------|
D|------------------------------------|
A|------------------------------------|
E|------------------------------------|

e|------0-------0---------0---3-2-0---|
B|----3---3---3---3-----3---3-------3-|
G|--2-------2-------------------------|
D|------------------------------------|
A|------------------------------------|
E|------------------------------------|

e|------0-------0---------2---3-2-0---|
B|----3---3---3---3-----3---3-------3-|
G|--2-------2--------0----------------|
D|------------------------------------|
A|------------------------------------|
E|------------------------------------|