Foo Fighters - Marigold Text Guitar Tab

Learn song with the online tabulature player
Good Old Standard Tuning .

 Really, Really Simple Song . I Guess This Was The First Full Song I Ever Learned !
 


  Verse/Bridge
   
e||-----------------------------------||
B||-----------------------------------||
G||--9-9-99/6-6-6-66/4-4-x2/5-5-5-5---||
D||--9-9-99/6-6-6-66/4-4-x2/5-5-5-5---||
A||--7-7-77/4-4-4-44/2-2-x0/3-3-3-3---||
E||-----------------------------------||


Chorus

e||-------------------------------------------------------------------------------------------||
B||-------------------------------------------------------------------------------------------||
G||----------------------------------9-9-9-9-9-9-9-9/6-6-6-6-6-6-6-6/555-5-555-5-555-5-555-5--||
D||--5-5-5-5-5-5-5-5/7-7-7-7-7-7-7-7-9-9-9-9-9-9-9-9/6-6-6-6-6-6-6-6/555-5-555-5-555-5-555-5--||
A||--5-5-5-5-5-5-5-5/7-7-7-7-7-7-7-7-7-7-7-7-7-7-7-7/4-4-4-4-4-4-4-4/333-3-333-3-333-3-333-3--||
E||--3-3-3-3-3-3-3-3/5-5-5-5-5-5-5-5----------------------------------------------------------||


She's there in case I want it all 
He's scared cause I want 
She's there in case I want it all 
He's scared cause I want 

All in all the clock is slow 
Six color pictures all in a row 
Of a marigold 

She's there in case I want it all 
He's scared cause I want 
She's there in case I want it all 
He's scared cause I want 

All in all the clock is slow 
Six color pictures all in a row 
Of a marigold 

She's there in case I want it all 
He's scared cause I want 
She's there in case I want it all 
He's scared cause I want 

All in all the clock is slow 
Six color pictures all in a row 
Of a marigold