Foo Fighters - Still Chords

Main Riff
Main Riff
 
No chord
    
Standard guitar tuning:
E
A
D
G
B
E
No capo
                                                11x
E||----------------------|-----------------------||-----------------------|-----------------------||
B||----------------------|-----------------------||-----------------------|-----------------------||
G||------------0---------|------------0---------*||*------------0---------|------------0---------*||
D||-------2--------------|-------2--------------*||*----------------------|-------0--------------*||
A||--3--------------3----|--1--------------1-----||--------3--------------|-----------------------||
E||----------------------|-----------------------||---4--------------4----|--6--------------6-----||
                                               5x
-----------------------|-----------------------||-----------------------|-----------------------||
-----------------------|-----------------------||-----------------------|-----------------------||
*------------0---------|------------0---------*||*------------0---------|------------0---------*||
*-------2--------------|-------2--------------*||*----------------------|-------0--------------*||
---3--------------3----|--1--------------1-----||--------3--------------|-----------------------||
-----------------------|-----------------------||---4--------------4----|--6--------------6-----||
                                               3x
-----------------------|-----------------------||-----------------------|-----------------------||
-----------------------|-----------------------||-----------------------|-----------------------||
*------------0---------|------------0---------*||*------------0---------|------------0---------*||
*-------2--------------|-------2--------------*||*----------------------|-------0--------------*||
---3--------------3----|--1--------------1-----||--------3--------------|-----------------------||
-----------------------|-----------------------||---4--------------4----|--6--------------6-----||
                        3x
------------------------||------------------------||----------------------|----------------------|
------------------------||------------------------||----------------------|----------------------|
*------------0---------*||*------------0---------*||------------0---------|------------0---------|
*----------------------*||*----------------------*||-------0--------------|-------0--------------|
--------3---------------||--------3---------------||----------------------|----------------------|
---1--------------1-----||---4--------------4-----||--6--------------6----|--6--------------6----|
                         3x
|------------------------||------------------------||----------------------|----------------------|
|------------------------||------------------------||----------------------|----------------------|
|*------------0---------*||*------------0---------*||------------0---------|------------0---------|
|*----------------------*||*----------------------*||-------0--------------|-------0--------------|
|--------3---------------||--------3---------------||----------------------|----------------------|
|---1--------------1-----||---4--------------4-----||--6--------------6----|--6--------------6----|
                         3x
|------------------------||------------------------||----------------------|----------------------|
|------------------------||------------------------||----------------------|----------------------|
|*------------0---------*||*------------0---------*||------------0---------|------------0---------|
|*----------------------*||*----------------------*||-------0--------------|-------0--------------|
|--------3---------------||--------3---------------||----------------------|----------------------|
|---1--------------1-----||---4--------------4-----||--6--------------6----|--6--------------6----|
----------------------|--10-------------------|------------10---------|----------------------|
----------------------|--------8--------------|------------------8----|----------------------|
-------5--------------|------------------5----|-----------------------|-------5--------------|
------------5---------|-----------------------|--5--------------------|------------5---------|
--7--------------7----|-------------7---------|-------7---------------|--7--------------7----|
----------------------|-----------------------|-----------------------|----------------------|
----------------------|--10-------------------------------|------------------|------------------|
----------------------|--------8--------------------------|------------------|------------------|
-------5--------------|------------------5----------------|------------------|------------------|
------------5---------|-----------------------------------|------------------|------------------|
--7--------------7----|-------------7---------------------|------------------|------------------|
----------------------|-----------------------------------|------------------|------------------|
                                                7x
|-----------------------|-----------------------||-----------------------|-----------------------||
|-----------------------|-----------------------||-----------------------|-----------------------||
|*------------0---------|------------0---------*||*------------0---------|------------0---------*||
|*-------2--------------|-------2--------------*||*----------------------|-------0--------------*||
|---3--------------3----|--1--------------1-----||--------3--------------|-----------------------||
|-----------------------|-----------------------||---4--------------4----|--6--------------6-----||
                                               5x
-----------------------|-----------------------||-----------------------|-----------------------||
-----------------------|-----------------------||-----------------------|-----------------------||
*------------0---------|------------0---------*||*------------0---------|------------0---------*||
*-------2--------------|-------2--------------*||*----------------------|-------0--------------*||
---3--------------3----|--1--------------1-----||--------3--------------|-----------------------||
-----------------------|-----------------------||---4--------------4----|--6--------------6-----||
                                               3x
-----------------------|-----------------------||-----------------------|-----------------------||
-----------------------|-----------------------||-----------------------|-----------------------||
*------------0---------|------------0---------*||*------------0---------|------------0---------*||
*-------2--------------|-------2--------------*||*----------------------|-------0--------------*||
---3--------------3----|--1--------------1-----||--------3--------------|-----------------------||
-----------------------|-----------------------||---4--------------4----|--6--------------6-----||
                        3x
------------------------||------------------------||----------------------|----------------------|
------------------------||------------------------||----------------------|----------------------|
*------------0---------*||*------------0---------*||------------0---------|------------0---------|
*----------------------*||*----------------------*||-------0--------------|-------0--------------|
--------3---------------||--------3---------------||----------------------|----------------------|
---1--------------1-----||---4--------------4-----||--6--------------6----|--6--------------6----|
                         3x
|------------------------||------------------------||----------------------|----------------------|
|------------------------||------------------------||----------------------|----------------------|
|*------------0---------*||*------------0---------*||------------0---------|------------0---------|
|*----------------------*||*----------------------*||-------0--------------|-------0--------------|
|--------3---------------||--------3---------------||----------------------|----------------------|
|---1--------------1-----||---4--------------4-----||--6--------------6----|--6--------------6----|
                         3x
|------------------------||------------------------||----------------------|----------------------|
|------------------------||------------------------||----------------------|----------------------|
|*------------0---------*||*------------0---------*||------------0---------|------------0---------|
|*----------------------*||*----------------------*||-------0--------------|-------0--------------|
|--------3---------------||--------3---------------||----------------------|----------------------|
|---1--------------1-----||---4--------------4-----||--6--------------6----|--6--------------6----|
----------------------|--10-------------------|------------10---------|----------------------|
----------------------|--------8--------------|------------------8----|----------------------|
-------5--------------|------------------5----|-----------------------|-------5--------------|
------------5---------|-----------------------|--5--------------------|------------5---------|
--7--------------7----|-------------7---------|-------7---------------|--7--------------7----|
----------------------|-----------------------|-----------------------|----------------------|
----------------------|--10-------------------------------|------------------|------------------|
----------------------|--------8--------------------------|------------------|------------------|
-------5--------------|------------------5----------------|------------------|------------------|
------------5---------|-----------------------------------|------------------|------------------|
--7--------------7----|-------------7---------------------|------------------|------------------|
----------------------|-----------------------------------|------------------|------------------|
                                                3x
|-----------------------|-----------------------||-----------------------|-----------------------||
|-----------------------|-----------------------||-----------------------|-----------------------||
|*------------0---------|------------0---------*||*------------0---------|------------0---------*||
|*-------2--------------|-------2--------------*||*----------------------|-------0--------------*||
|---3--------------3----|--1--------------1-----||--------3--------------|-----------------------||
|-----------------------|-----------------------||---4--------------4----|--6--------------6-----||
                                               3x
-----------------------|-----------------------||-----------------------|-----------------------||
-----------------------|-----------------------||-----------------------|-----------------------||
*------------0---------|------------0---------*||*------------0---------|------------0---------*||
*-------2--------------|-------2--------------*||*----------------------|-------0--------------*||
---3--------------3----|--1--------------1-----||--------3--------------|-----------------------||
-----------------------|-----------------------||---4--------------4----|--6--------------6-----||
                        3x
------------------------||------------------------||----------------------|----------------------|
------------------------||------------------------||----------------------|----------------------|
*------------0---------*||*------------0---------*||------------0---------|------------0---------|
*----------------------*||*----------------------*||-------0--------------|-------0--------------|
--------3---------------||--------3---------------||----------------------|----------------------|
---1--------------1-----||---4--------------4-----||--6--------------6----|--6--------------6----|
                         3x
|------------------------||------------------------||----------------------|----------------------|
|------------------------||------------------------||----------------------|----------------------|
|*------------0---------*||*------------0---------*||------------0---------|------------0---------|
|*----------------------*||*----------------------*||-------0--------------|-------0--------------|
|--------3---------------||--------3---------------||----------------------|----------------------|
|---1--------------1-----||---4--------------4-----||--6--------------6----|--6--------------6----|
                         3x
|------------------------||------------------------||----------------------|----------------------|
|------------------------||------------------------||----------------------|----------------------|
|*------------0---------*||*------------0---------*||------------0---------|------------0---------|
|*----------------------*||*----------------------*||-------0--------------|-------0--------------|
|--------3---------------||--------3---------------||----------------------|----------------------|
|---1--------------1-----||---4--------------4-----||--6--------------6----|--6--------------6----|
                         3x
|------------------------||------------------------||----------------------|----------------------|
|------------------------||------------------------||----------------------|----------------------|
|*------------0---------*||*------------0---------*||------------0---------|------------0---------|
|*----------------------*||*----------------------*||-------0--------------|-------0--------------|
|--------3---------------||--------3---------------||----------------------|----------------------|
|---1--------------1-----||---4--------------4-----||--6--------------6----|--6--------------6----|
----------------------|--10-------------------|------------10---------|----------------------|
----------------------|--------8--------------|------------------8----|----------------------|
-------5--------------|------------------5----|-----------------------|-------5--------------|
------------5---------|-----------------------|--5--------------------|------------5---------|
--7--------------7----|-------------7---------|-------7---------------|--7--------------7----|
----------------------|-----------------------|-----------------------|----------------------|
----------------------|--10-------------------------------|------------------|------------------|
----------------------|--------8--------------------------|------------------|------------------|
-------5--------------|------------------5----------------|------------------|------------------|
------------5---------|-----------------------------------|------------------|------------------|
--7--------------7----|-------------7---------------------|------------------|------------------|
----------------------|-----------------------------------|------------------|------------------|
                                                5x
|-----------------------|-----------------------||------||
|-----------------------|-----------------------||------||
|*------------0---------|------------0---------*||------||
|*-------2--------------|-------2--------------*||------||
|---3--------------3----|--1--------------1-----||------||
|-----------------------|-----------------------||------||

All Content on this page is the property of the copyright owner of the original composition.