Forever The Sickest Kids - Cop Car Text Guitar Tab

Learn song with the online tabulature player
-------------------------------------------------------------------------------
                COP CAR - Forever The Sickest Kids
-------------------------------------------------------------------------------
Tabbed by: Melissa
Email: thesnokoplasmisyellow@gmail.com

Tuning: Standard; CAPO 1

This song is really easy to play. And the tab is 100% accurate, if I do say so 
myself. :) Enjoy, homies.

INTRO/VERSES
(Play this during everything except the chorus.)

e|---------------------------------------------------------------------------|
B|---0-------0---------0-------0-----|---0-----------------------------------|
G|--2--2----2--2------2--2----2--2---|-2--2---(x4)---------------------------|
D|-----------------------------------|0--------------------------------------|
A|-0------0----------4------4--------|---------------------------------------|
E|---------------------------------------------------------------------------|

CHORUS
("This is how I cope with losing you")
e|---------------------------------------------------------------------------|
B|---0-------0---------0-------0-----|---0-----------------------------------|
G|--2--2----2--2------2--2----2--2---|-2--2---(x4)---------------------------|
D|------------------2--------2-------|0--------------------------------------|
A|-0------0--------------------------|---------------------------------------|
E|---------------------------------------------------------------------------|