Forever The Sickest Kids - Hey Brittany Text Guitar Tab

Learn song with the online tabulature player
Great song, by a great band.
I'm pretty sure the intros on the other tabs are in the wrong key. This is how it really goes:

Intro:

Guitar 1 (Clean, palm-muted with reverb):
e|---------------------------------|
B|---------------------------------|
G|---------------------------------|
D|--15-14----14-----15-14----14----| x4
A|--------14----14--------14----17-|
D|---------------------------------|
  .................................

Guitar 2 (Clean):
e|-8----8-10-8--12p8----10-8-|
B|---10--------------10------|
G|---------------------------|
D|---------------------------| x2
A|---------------------------|
D|---------------------------|

Guitar 1 (Overdrive):
e|----------------------------------|    |------|
B|----------------------------------|    |------|
G|----------------------------------|    |------|
D|-3-3-3-2h3p2h3/5\3--33-3-33/5-3/5-| x2 |-3~-3-| Play this second time
A|-3-3-3--------------33-3-33/5-3/5-|    |-3~-3-| into the verse.
D|-3-3-3--------------33-3-33/5-3/5-|    |-3~-3-|

“Are you alone”

Guitar 1
e|-----------|
B|-----------|
G|-7-7-7-9-5-|
D|-x-x-x-x-x-|
A|-5-5-5-7-3-|
D|-----------|

Guitar 2
e|-----------|
B|-----------|
G|-----------|
D|-5-5-5-7-3-|
A|-5-5-5-7-3-|
D|-5-5-5-7-3-|

“So why, does everything you say make you upset...”:
e|--------------------------------------|
B|--------------------------------------|
G|-10-10-99-9-5-5-77-7---10-10-99-9-5-5-|
D|--------------------------------------|
A|-8—-8--77-7-3-3-55-5---8—-8--77-7-3-3-|
D|--------------------------------------|

“So yeah yeah yeah, go ahead and lower it down...”

Guitar 1:
e|---------------------------|
B|---------------------------|
G|-12-12-12-12/10-10-10-10/9-|
D|---------------------------|
A|-10-10-10-10/8—--8--8--8/7-|
E|---------------------------|

Guitar 2:
e|---------------------------------------------|
B|---------------------------------------------|
G|---------------------------------------------|
D|-33333333-55555555-1010101010101010-99999999-|
A|-33333333-55555555-1010101010101010-99999999-|
D|-33333333-55555555-1010101010101010-99999999-|
   ........ ........ . . . . . . . .  ........

Chorus (Both guitars):
e|------------------------------------|
B|------------------------------------|
G|------------------------------------|
D|-3333333333333333-77777777-55555555-|
A|-3333333333333333-77777777-55555555-|
D|-3333333333333333-77777777-55555555-|

Bridge:

Guitar 1:
e|----------|
B|----------|
G|----------|
D|-3-3/55-5-|
A|-3-3/55-5-|
D|-3-3/55-5-|

Guitar 2:
e|---------------|
B|---------------|
G|-10-9-10-9-----|
D|-----------10~-|
A|---------------|
D|---------------|

[Repeat verse]

[Repeat chorus]

[Interlude with no guitar “Where do we go...” and “So yeah yeah yeah...”]

Last Chorus (Both guitars):
e|------------------------------------|
B|------------------------------------|
G|------------------------------------|
D|-3333333333333333-77777777-55555555-|
A|-3333333333333333-77777777-55555555-|
D|-3333333333333333-77777777-55555555-|

Ending:

Guitar 1 (Overdrive):
e|---------------------------------------------------|
B|---------------------------------------------------|
G|---------------------------------------------------|
D|-3-3-3----33-3-33/5-3/5---3-3-3--33-3-3-555-555-3~-|
A|-3-3-3----33-3-33/5-3/5---3-3-3--33-3-3-555-555-3~-|
D|-3-3-3----33-3-33/5-3/5---3-3-3--33-3-3-555-555-3~-|
   . . .    .. . .          . . .  .. . .
   
That’s it. I’m pretty sure it’s at least 99% right. I'm quite proud of this tab as I've only just
learnt how to ear-transcribe songs, and it took me two days but I think I've finally cracked it
with this song.
Comments and ratings really appreciated.