Forever The Sickest Kids - Shes A Lady Acoustic Chords

 
No chord
    
Standard guitar tuning:
E
A
D
G
B
E
No capo
e|-0--0---0-0-0---0-0-0-0-0-0-0-0-0----|
B|-1--1---1-1-1---1-1-1-1-1-1-1-1-1----|
G|-0--0---0-0-0---0-2-2-2-2-0-0-0-0----|
D|-3--3---3-3-3---3-2-2-2-2-0-0-0-0----|
A|-3--3---3-3-3---3-0-0-0-0-2-2-2-2----|
E|-x--x---x-x-x---x-x-x-x-x-3-3-3-3----|  Repeat a bunch
\ v v \ v v \ v \ v \ v \ v

Pre-chorus

e|-0-0000~--0--000------| B|-1-1111~--1--111------| G|-0-0000~--2--000------| D|-3-3333~--2--000------| A|-3-3333~--0--022------| E|-x-xxxx~--x—-x33------| x2
e|-0---------------------0--------0-----------0-----------------|
B|-1---------------------1--------1-----------1-----------------|
G|-0---------------------2--------0-----------0-----------------|
D|-3---------------------2--------3-----------0-----------------|
A|-3---------------------0--------3-----------2-----------------|
E|-x---------------------x--------x-----------3-----------------|
“Did you scream ” “Cry ” “Return ” “Think that I’m not worth ”

Chorus

e|--------------------------------------------------|
B|--------------------------------------------------|
G|--------------------------------------------------|
D|-3-3-3~----------7-7-7-7—-5 ----------------| A|-3-3-3~----------7-7-7-7—-5 strum ----------------| E|-1-1-1~----------5-5-5-5—-3 ----------------| 2x Have fun, and enjoy!

All Content on this page is the property of the copyright owner of the original composition.