Forever The Sickest Kids - What Do You Want From Me Text Guitar Tab

Learn song with the online tabulature player
Hey guys, this is my first tab, my email's at the bottom.  Email me if anything's wrong 
PLEASE RATE EVEN IF ITS TERRIBLE.

Intro

G|--------------------------- |
D|--------------------------- |
A|--------66---33---66---33-- |
E|-66/9\ ----66---44---66---44|

Verse 1
(Note: from 0:14 to 0:22, the bass plays piano (quietly), so watch out! :P)

G|--------------------|
D|--------------------|
A|-66---33---66--33---|
E|---66---44---66--6\-|

G|----------------------------------------------------|
A|----------------------------------------------------|
D|-66-----3-33-----4h6p4\-66------3-33----------------|
E|---6-66-----4-44-----------6-66------4/9\-44-44-4444|

Chorus

Can you say... (play nothing on the Ehs and Ohs)

G|----------------|
D|----------------|
A|-66-----3-33----|
E|---6-66-----4-44|

I got the feeling...
G|-----------------|
A|-----------------|
D|-6666----3333----|
E|-----6666----4444|

Can you say... (play nothing on the Ehs and Ohs)

G|----------------|
D|----------------|
A|-66-----3-33----|
E|---6-66-----4-44|

Verse 2

G|--------------------------------------------------------|
D|--------------------------------------------------------|
A|-66---33------------------------------------------------|
E|---66---| x2  First time: E |-44|  Second time: E|-4\---|
                                                   ^ optional, and SUPER SHORT

G|----------------------------------------------------|
A|----------------------------------------------------|
D|-66-----3-33-----4h6p4\-66------3-33----------------|
E|---6-66-----4-44-----------6-66------4/9\-44-44-4444|

Chorus:

Can you say... (play nothing on the Ehs and Ohs)

G|----------------|
D|----------------|
A|-66-----3-33----|
E|---6-66-----4-44|

I got the feeling...
G|-----------------|
A|-----------------|
D|-6666----3333----|
E|-----6666----4444|

Can you say... (play nothing on the Ehs and Ohs)

G|----------------|
D|----------------|
A|-66-----3-33----|
E|---6-66-----4-44|

Bridge:

G|-----------------------------------------------------------------HEY------|
D|------------------------------------------------------------------v-------|
A|--------33333333--------------------------333333335555555588888888-888810~|
E|11111111--------11111111-33333333-11111111--------------------------------|

*Break*

E|6\-|
Chorus:

Can you say... (play nothing on the Ehs and Ohs)

G|----------------|
D|----------------|
A|-66-----3-33----|
E|---6-66-----4-44|

I got the feeling...
G|-----------------|
A|-----------------|
D|-6666----3333----|
E|-----6666----4444|x2

First time:

Can you say... (play nothing on the Ehs and Ohs)

G|----------------|
D|----------------|
A|-66-----3-33----|
E|---6-66-----4-44|

Second time

G|----------|
D|----------|
A|-66---33--|
E|---66---4-|

THE END

Thanks :)

Maki.117

Maki.117@hotmail.com