Forever The Sickest Kids - Whoa Oh Text Guitar Tab

Learn song with the online tabulature player
Forever The Sickest Kids - "Whoa Oh!(Me vs. Everyone)"

This is 100% right.
Here's what it's supposed to sound like:
http://www.youtube.com/watch?v=uMeSb0qaP6s

Tuning:Drop D
DADGBe

Intro(Distorted)
|---------------------------------------|
|---------------------------------------|
|---------------------------------------|
|-0-5-0-5-7-5-0-4-5-4-0-----------------|
|-0-5-0-5-7-5-0-4-5-4-0-5-4h5p4h5p4p0---|
|-0-5-0-5-7-5-0-4-5-4-0-----------------|

|-------------------------------|
|-------------------------------|
|-------------------------------|
|-0-5-7-5-0-4-5-4-0-------------|
|-0-5-7-5-0-4-5-4-0-5-5555-7p0--|
|-0-5-7-5-0-4-5-4-0-------------|

|-------------------------------------------------|
|-------------------------------------------------|
|-------------------------------------------------|
|--0-5-7-5-0-4-5-4-999999-977-0-5-7-5-0-4-5-4-0~--|
|--0-5-7-5-0-4-5-4-999999-977-0-5-7-5-0-4-5-4-0~--|
|--0-5-7-5-0-4-5-4-999999-977-0-5-7-5-0-4-5-4-0~--|


Verse pt 1(clean)

|-------------------------------|
|-------------------------------|
|---7----7--7---7--7---7--7---7-| x2
|---7----7--7---7--7---7--7---7-|
|-------------------------------|
|-5--555--7--777-0--000--0-000--|

Verse pt 2(Distorted)

|-------------------------------------------|
|-------------------------------------------|
|---7---7--7---7---777--7---7--7---7---777--|
|---7---7--7---7---777--7---7--7---7---777--| x 2
|-------------------------------------------|
|-55--55-5---77--77---00--00-0---00--00-----|
                             *

*=End here second time

Chorus(Distorted)

|------------------------------------|
|------------------------------------|
|------------------------------------|
|-55555555-00000000-7777777777777777-|
|-55555555-00000000-7777777777777777-|
|-55555555-00000000-7777777777777777-|

|-----------------------------------------|
|-----------------------------------------|
|-----------------------------------------|
|-55555555-00000000-77777777---7---7---5~-|
|-55555555-00000000-77777777-777-777-775~-|
|-55555555-00000000-77777777-777-777-775~-|

Post Chorus(Clean)

|-------------------------------|
|-------------------------------|
|---7----7--7---7--7---7--7---7-| 
|---7----7--7---7--7---7--7---7-|
|-------------------------------|
|-5--555--7--777-0--000--0-000--|

Verse 2 pt 1(Distorted)

|----------------------------------|
|----------------------------------|
|-7-7976-676(14)-(14)(12)9-9-9-9-9-|
|-x-xxxx-xxx-x----x---x--x-x-x-x-x-| x 2
|-5-5754-454(12)-(12)(10)7-7-7-7-7-|
|----------------------------------|

I used the () to show that it's 12's not 1,2's.

Verse 2 pt 2.(Distorted)

|-------------------------------------------|
|-------------------------------------------|
|---7---7--7---7---777--7---7--7---7---777--|
|---7---7--7---7---777--7---7--7---7---777--| 
|-------------------------------------------|
|-55--55-5---77--77---00--00-0---00--00-----|

|-----------------|
|-----------------|
|-5-5-7-7-7-7-0~--|
|-5-5-7-7-7-7-0~--|
|-5-5-7-7-7-7-0~--|

Chorus(Distorted)

|------------------------------------|
|------------------------------------|
|------------------------------------|
|-55555555-00000000-7777777777777777-|
|-55555555-00000000-7777777777777777-|
|-55555555-00000000-7777777777777777-|

|-----------------------------------------|
|-----------------------------------------|
|-----------------------------------------|
|-55555555-00000000-77777777---7---7---5~-|
|-55555555-00000000-77777777-777-777-775~-|
|-55555555-00000000-77777777-777-777-775~-|

|-------------------------------------------------|
|-------------------------------------------------|
|-------------------------------------------------|
|-55555555-77777777-99999999-(12)(12)(12)(11)(11)-|
|-55555555-77777777-99999999-(12)(12)(12)(11)(11)-|
|-55555555-77777777-99999999-(12)(12)(12)(11)(11)-|

|-------------------------------------|
|-------------------------------------|
|-------------------------------------|
|-55555555-00000000-77777777-7-7-7-7--|
|-55555555-00000000-77777777-7-7-7-7--|
|-55555555-00000000-77777777-7-7-7-7--|

Bridge pt 1(Distorted)

|-------------------------------------|
|-------------------------------------|
|-------------------------------------|
|--5~---------------0~----------------|
|--5~---------------0~----------------|
|--5~---------------0~----------------|

Bridge pt 2(distorted)
(comes in after "Line in a movie")
|-----------------------------------------------------|
|-----------------------------------------------------|
|-----------------------------------------------------|
|-5555555555555555-77777777-9999999-(12)(12)(12)(12)--|
|-5555555555555555-77777777-9999999-(12)(12)(12)(12)--|
|-5555555555555555-77777777-9999999-(12)(12)(12)(12)--|
  ................ ........ .......  .   .   .   .

|-----------------------------------------------------|
|-----------------------------------------------------|
|-----------------------------------------------------|
|-55555555-77777777-9999999-(12)(12)(12)(12)(11)(11)--|
|-55555555-77777777-9999999-(12)(12)(12)(12)(11)(11)--|
|-55555555-77777777-9999999-(12)(12)(12)(12)(11)(11)--|
  ........ ........ .......  .   .   .

Fill(distorted)

|-----------------------------------|
|-----------------------------------|
|-----------------------------------|
|-0-5-0-5-7-5-0-4-5-4-0-------------|
|-0-5-0-5-7-5-0-4-5-4-0--000-0-0-0--|
|-0-5-0-5-7-5-0-4-5-4-0--000-0-0-0--|
                         ... . . .

|-------------------------------|
|-------------------------------|
|-------------------------------|
|-0-5-7-5-0-4-5-4-0-------------| 
|-0-5-7-5-0-4-5-4-0--000-0-0-0--|
|-0-5-7-5-0-4-5-4-0--000-0-0-0--|
                     ... . . .

|-------------------------------------------------|
|-------------------------------------------------|
|-------------------------------------------------|
|--0-5-7-5-0-4-5-4-999999-977-0-5-7-5-0-4-5-4-0~--|
|--0-5-7-5-0-4-5-4-999999-977-0-5-7-5-0-4-5-4-0~--|
|--0-5-7-5-0-4-5-4-999999-977-0-5-7-5-0-4-5-4-0~--|

Chorus(Distorted)

|------------------------------------|
|------------------------------------|
|------------------------------------|
|-55555555-00000000-7777777777777777-|
|-55555555-00000000-7777777777777777-|
|-55555555-00000000-7777777777777777-|

|-----------------------------------------|
|-----------------------------------------|
|-----------------------------------------|
|-55555555-00000000-77777777---7---7---5~-|
|-55555555-00000000-77777777-777-777-775~-|
|-55555555-00000000-77777777-777-777-775~-|

|-------------------------------------------------|
|-------------------------------------------------|
|-------------------------------------------------|
|-55555555-77777777-99999999-(12)(12)(12)(11)(11)-|
|-55555555-77777777-99999999-(12)(12)(12)(11)(11)-|
|-55555555-77777777-99999999-(12)(12)(12)(11)(11)-|

|-------------------------------------------|
|-------------------------------------------|
|-------------------------------------------|
|-55555555-00000000-7-7-7-7-9-9-(12)(12)-5~-|
|-55555555-00000000-7-7-7-7-9-9-(12)(12)-5~-|
|-55555555-00000000-7-7-7-7-9-9-(12)(12)-5~-|